Song name
# A B C D E F G H I J K L M N O P Q R S T U V W X Y Z

Haim - Go Slow chords

Highlighted       Show chord diagrams
These tabs are based off what is played on this video and my best arrangement for it on 
guitar http://www.youtube.com/watch?v=orN6OvaY9eY



D*          -X00XXX
G*          -X20XXX






D* G*
D* G*


Go slow.
D*                  G*
So that I can hear everything you're sayin.

Now I know you're goin.
D*                  G*
You just threw this away.

You know I ain't gonna take it.

Go slow.


D* G*
       You know you ain't gonna make it.

I know
    D*                  G*
I can't make you stay.

But I'll be hurtin from the heat.

-----5--5--5--5----5--5----5--5-----|
------------------------------------|
------------------------------------|
------------------------------------|
------------------------------------|
--3--------------2-------3----------|

Running from the heat.

-----5--5--5--5----5--5------------|
-----------------------------------|
-----------------------------------|
-----------------------------------|
-----------------------------------|
--3--------------2-------3---------|



Chorus:

                    G
Well, well, was it something that I said.
   A                           F#m
I know that it was something I said.
               G
From your heat now.
                        G
I'm going crazy trying hard to forget.
     A                       F#m
You know I'm trying to hard forget.
               G
From your heat now.
                G       A              Bm
Oh I just wanna go back hold on to the way that I was
                  G       A
Cuz you took away all my young life.
      Bm
And I hate who I've become from your heat now.



D* G*                                            D* G*
        From your heat it's comin, comin.



I know.
    D*             G*
I'm givin in and believin every lie.

For now, the moon, it's night.
D*             G*
I turn off the light.

But you should put the foundation.

Go slow.


     D* G*
Now.

With your intimidation.

I know.
     D*       G*
You turn away now I'll be hurt from the heat.

-----5--5--5--5----5--5----5--5-----|
------------------------------------|
------------------------------------|
------------------------------------|
------------------------------------|
--3--------------2-------3----------|

Running from the Heat.

-----5--5--5--5----5--5------------|
-----------------------------------|
-----------------------------------|
-----------------------------------|
-----------------------------------|
--3--------------2-------3---------|



                    G
Well, well, was it something that I said.
   A                           F#m
I know that it was something I said.
               G
From your heat now.
                        G
I'm going crazy trying hard to forget.
     A                       F#m
You know I'm trying to hard forget.
               G
From your heat now.
                G       A              Bm
Oh I just wanna go back hold on to the way that I was
                  G       A
Cuz you took away all my young life.
      Bm
And I hate who I've become from your heat now.

G
   Go back, go back...
A
   Go back, go back...
F#m
   Go back, go back...
G
   Go back, go back...

G
   Go back, go back...
A
   Go back, go back...
F#m
   Go back, go back...
G
   Go back, go back...

G
   From your heat now.
A
   From your heat now.
Bm
   From your heat now, from the heat now

G
   From your heat now.
A
   From your heat now.
Bm
   From your heat now, from the heat now
Tap to rate this tab
 
# A B C D E F G H I J K L M N O P Q R S T U V W X Y Z