Song name
# A B C D E F G H I J K L M N O P Q R S T U V W X Y Z

Haim - Wrecking Ball tab

Intro and Verse
D5 F5 C5 Bb5
e|-------------------------------------------------|
B|-------------------------------------------------|
G|------7----77-----------------5----5------3-----3| 
D|------7----77-----3----3------5----5------3-----3|
A|-5-5----5-5-------3----3--3-3---3-3---1-1---1-1--|
E|--------------1-1---1-1--------------------------|(repeats until chorus)

We clawed, we chained, our hearts in vain
We jumped, never asking why
We kissed, I fell under your spell
A love no one could deny

Don't you ever say I just walked away
I will always want you
I can't live a lie, running for my life
I will always want you

Chorus
Chords used:
     F4       C4      D4     Bb4
e|---13---|---8---|---10--|---6--|
B|---14---|---9---|---11--|---7--|
G|---15---|---10--|---12--|---8--|
D|---15---|---10--|---12--|---8--|
A|---x----|---x---|---x---|---x--|
E|---x----|---x---|---x---|---x--|

F4 C4 D4 Bb4

I came in like a wrecking ball
I never hit so hard in love
All I wanted was to break your walls
All you ever did was break me
Yeah you, you wreck me

Second Verse( Same chords from first verse)

Bridge
I never meant to start a war
I just wanted you to let me in
And instead of using force
(After this bit Danielle plays)
D5 F5 A5
e|---------------------------|
B|---------------------------|
G|---------------------------| 
D|-12-----3-----7------------|
A|-12-----3-----7------------|
E|-10-----1-----5------------|


I guess I should've let you in
I never meant to start a war
I just wanted you to let me in
I guess I should've let you win


Chorus again



Ps. I hope i got it right, i'm new at this.


^^
Tap to rate this tab
# A B C D E F G H I J K L M N O P Q R S T U V W X Y Z