Song name
# A B C D E F G H I J K L M N O P Q R S T U V W X Y Z

Haim - Strong Enough Cover tab

e|------16/15--------|
B|--16---------------|
G|-------------------|
D|-------------------|
A|-------------------|
E|-------------------|

Intro and Verses: D G Bm  A D  G Bm  A D(repeats)

Verse 1
God, I feel like hell tonight
Tears of rage I cannot fight
Id be the last to help you understand
Are you strong enough to be my man? 
(my man)
         --- 
Verse 2
Nothings true and nothings right
So let me be alone tonight
Cause you cant change the way I am
Are you strong enough to be my man? 


e|------------------------|
B|------------------------|
G|------------------------|
D|--2---------------------|
A|--2------0-2-0----------|
E|--0--2-3-------3--------|(2x)

Lie to me
I promise I'll believe
Lie to me but please don't leave

     D      D4      D'       D'4     
e|---2---|---3---|---14--|---15--|
B|---3---|---3---|---15--|---15--|
G|---2---|---2---|---14--|---14--|
D|---0---|---0---|---0---|---0---|
A|---x---|---x---|---x---|---x---|
E|---x---|---x---|---x---|---x---|

Verse 3
I have a face I cannot show
I make the rules up as I go
Its try and love me if you can
Are you strong enough to be my man? 
My man, my ma-an

e|--------------------------|
B|--------------------------|
G|--------------------------|
D|--00000000000000000000000-|
A|--------------------------|
E|--------------------------|


e|----------------------------------------------------|
B|----------------------------------------------------|
G|-99/111111111111/121212--9999-99/11/121212121211----|
D|-00--0-0-0-0-0-0--0-0-0--0000-00--0--0-0-0-0-0-0----|
A|----------------------------------------------------|
E|----------------------------------------------------|(9th, 11th, 12th)

e|---------------------------------------------------------------|
B|--------------------------------------------1515115------------|
G|-------12-1414-14-12--------------12-141414---------14/1212----|
D|-12-14---------------14-12--12-14-------------------------14-12|
A|---------------------------------------------------------------|
E|---------------------------------------------------------------|

e|---------------------1414-----12-12---1212-14--1214-1214-12-------1414|
B|-------------12-1414-----12-14-----14-----------------------14-12-----|
G|-------12-14----------------------------------------------------------|
D|-12-14----------------------------------------------------------------|
A|----------------------------------------------------------------------|
E|----------------------------------------------------------------------|

e|--1515---------------------|
B|------15151515151515-------|
G|---------------------14----|
D|---------------------------|
A|---------------------------|
E|---------------------------|(keep strummind D4)


Verse 4-
When Ive shown you that I just dont care
When Im throwing punches in the air
When Im broken down and I cant stand
Will you be strong enough to be my man? 

e|------------------------|
B|------------------------|
G|------------------------|
D|--2---------------------|
A|--2------0-2-0----------|
E|--0--2-3-------3--------|(2x)

Lie to me
I promise I'll believe
Lie to me but please don't leave


    D      D4      D'       D'4     
e|---2---|---3---|---14--|---15--|
B|---3---|---3---|---15--|---15--|
G|---2---|---2---|---14--|---14--|
D|---0---|---0---|---0---|---0---|
A|---x---|---x---|---x---|---x---|
E|---x---|---x---|---x---|---x---|


End with D
Tap to rate this tab
# A B C D E F G H I J K L M N O P Q R S T U V W X Y Z