Song name
# A B C D E F G H I J K L M N O P Q R S T U V W X Y Z

Haim - Days Are Gone tab

Not really a solo, it's just the riff that Danielle plays on the second verse.


e|------------------------------------|
B|------------------------------------|
G|-------5----5-----7-----------------| 
D|---5-7--5-7---5-7--5-7-5------------|
A|------------------------------------|
E|------------------------------------|(3x)

e|------------------------------------|
B|------------------------------------|
G|------7-----------7-----------------| 
D|--5-7--5-7-5--5-7---5-7-5-----------|
A|------------------------------------|
E|------------------------------------|

e|------------------------------------|
B|------------------------------------|
G|-------5----5-----7-----------------| 
D|---5-7--5-7---5-7--5-7-5------------|
A|------------------------------------|
E|------------------------------------|(3x)

e|------------------------------------|
B|------------------------------------|
G|------7-----------7-----------------| 
D|--5-7--5-7-5--5-7---5-7-5-----------|
A|------------------------------------|
E|------------------------------------|
Tap to rate this tab
 
# A B C D E F G H I J K L M N O P Q R S T U V W X Y Z