Song name
# A B C D E F G H I J K L M N O P Q R S T U V W X Y Z

Hakan Hellstrom - Kom Igen Lena tab

Det lilla solot för låten :)

e|-------------------------------10---------10--------12/14----------14-----|
B|-------10-------10-------10h12------10h12----10h12----------12--15-----12-|
G|-9h11-----9h11----9h11----------------------------------------------------|
D|--------------------------------------------------------------------------|
A|--------------------------------------------------------------------------|
E|--------------------------------------------------------------------------|

e ------|
B --15--|
G ------|
D ------|
A ------|
E ------|

e -------------------------------10---------10---------12/17--15-14-15-14-12-|
B -------10-------10-------10h12------10h12----10h12-------------------------|
G -9h11-----9h11----9h11-----------------------------------------------------|
D ---------------------------------------------------------------------------|
A ---------------------------------------------------------------------------|
E ---------------------------------------------------------------------------|

e -------------------------------10---------10--------9-10-12-17-15-14-7-9--|
B -------10-------10-------10h12------10h12----10h12------------------------|
G -9h11-----9h11----9h11----------------------------------------------------|
D --------------------------------------------------------------------------|
A --------------------------------------------------------------------------|
E --------------------------------------------------------------------------|

e -10-12-10-12-(19)-(21)-(22)-----|
B --------------------------------|
G ----------------------------(7)-|
D --------------------------------|
A --------------------------------|
E --------------------------------|

( ) = Spelas flera gånger,orkar inte sätta ut alla,haha

SÅ! :D lätt och bra , ha det gött
Tap to rate this tab
# A B C D E F G H I J K L M N O P Q R S T U V W X Y Z