Song name
# A B C D E F G H I J K L M N O P Q R S T U V W X Y Z

Hakan Hellstrom - Dom Kommer Kliva P Dig Igen tab

e-------------------------------------------------------------------------|
B-------------------------------------------------------------------------|
G-------------------------------------------------------------------------|
D-------0-2---2-220------------------------0-2---2-220-----2--------------|
A---0-2-------------2-0----------------0-2-------------2-0----------------|
E-----------------------3-------------------------------------------------|

e-------------------------------------------------------------------------|
B----------------------------------8----------------------8---------------|
G---9--7-----9-7-9-7---77-9-7-7--9----------7-9----------------------7----|
D----------9----------------------------7-9------------------9------------|
A-------------------------------------------------------------------------|
E-------------------------------------------------------------------------|


e-------------------------------------------------------------------------|
B-------------------------------------------------------------------8-----|
G------7-9-9-9-99-7---9-7---7-----7-9-77------9-7-9-7----77-9-7-7-9-------|
D--7-9--------------9-----9-----9----------9------------------------------|
A-------------------------------------------------------------------------|
E-------------------------------------------------------------------------|
Tap to rate this tab
# A B C D E F G H I J K L M N O P Q R S T U V W X Y Z