Song name
# A B C D E F G H I J K L M N O P Q R S T U V W X Y Z

Hakan Hellstrom - Bara Darar Rusar In tab

This is not my tab but i thought UG needed the tab version of this song as well. Thanks 
to the one who put the tab up at svenskaackord.se

When you are strumming, it sounds like he's doing it with only downstums.

        C            G          Am

e ------0------------3-----------0----------|
B ------1------------3-----------1----------|
G ------0------------4-----------2----------|
D ------2------------5-----------2----------|
A --0-2-3------------5-----------0----------|
E 3-----0------------3-----------x----------|

        F            C           G

e ------1------------0-----------3----------|
B ------1------------1-----------3----------|
G --0---2------------0-----------4----------|
D 2-----3------------2-----------5----------|
A ------3------------3-----------5----------|
E ------1------------0-----------3----------|



        F            C    (Dm)          F

e ------1------------0--------1p0-------1---|
B ------1-----0------1-------3---3p1----1---|
G --0---2------------0------2-----------2---|
D 2-----3------------2-----0------------3---|
A ------3------------3------------------3---|
E ------1------------0------------------1---|



        C            G           C

e ------0------------3-----------0----------|
B ------1------------3-----------1----------|
G ------0------------4-----------0----------|
D ------2------------5-----------2----------|
A ------3------------5-----------3----------|
E ------0------------3-----------0----------|






Vers 1


        C            G          Am

e ------0------------3-----------0----------|
B ------1------------3-----------1----------|
G ------0------------4-----------2----------|
D ------2------------5-----------2----------|
A --0-2-3------------5-----------0----------|
E 3-----0------------3-----------x----------|

Jag vaknade en morgon

        F            C           G

e ------1------------0-----------3----------|
B ------1------------1-----------3----------|
G --0---2------------0-----------4----------|
D 2-----3------------2-----------5----------|
A ------3------------3-----------5----------|
E ------1------------0-----------3----------|

från en dröm jag hade

        F            C    (Dm)          F

e ------1------------0--------1p0-------1---|
B ------1-----0------1-------3---3p1----1---|
G --0---2------------0------2-----------2---|
D 2-----3------------2-----0------------3---|
A ------3------------3------------------3---|
E ------1------------0------------------1---|

jag drömde att jag kunde sjunga

        C            G           C

e ------0------------3-----------0----------|
B ------1------------3-----------1----------|
G ------0------------4-----------0----------|
D ------2------------5-----------2----------|
A ------3------------5-----------3----------|
E ------0------------3-----------0----------|

men det kan jag inte

        C            G          Am

e ------0------------3-----------0----------|
B ------1------------3-----------1----------|
G ------0------------4-----------2----------|
D ------2------------5-----------2----------|
A --0-2-3------------5-----------0----------|
E 3-----0------------3-----------x----------|

Jag gick ut en kväll

        F            C           G

e ------1------------0-----------3----------|
B ------1------------1-----------3----------|
G --0---2------------0-----------4----------|
D 2-----3------------2-----------5----------|
A ------3------------3-----------5----------|
E ------1------------0-----------3----------|

för att känna lukten av våren

        F            C    (Dm)          F

e ------1------------0--------1p0-------1---|
B ------1-----0------1-------3---3p1----1---|
G --0---2------------0------2-----------2---|
D 2-----3------------2-----0------------3---|
A ------3------------3------------------3---|
E ------1------------0------------------1---|

jag trodde jag kunde känna igen

        C            G           C

e ------0------------3-----------0----------|
B ------1------------3-----------1----------|
G ------0------------4-----------0----------|
D ------2------------5-----------2----------|
A ------3------------5-----------3----------|
E ------0------------3-----------0----------|

men det kan jag inte




Intro




        C            G          Am

e ------0------------3-----------0----------|
B ------1------------3-----------1----------|
G ------0------------4-----------2----------|
D ------2------------5-----------2----------|
A --0-2-3------------5-----------0----------|
E 3-----0------------3-----------x----------|


        F            C           G

e ------1------------0-----------3----------|
B ------1------------1-----------3----------|
G --0---2------------0-----------4----------|
D 2-----3------------2-----------5----------|
A ------3------------3-----------5----------|
E ------1------------0-----------3----------|



        F            C    (Dm)          F

e ------1------------0--------1p0-------1---|
B ------1------------1-------3---3p1----1---|
G --0---2------------0------2-----------2---|
D 2-----3------------2-----0------------3---|
A ------3------------3------------------3---|
E ------1------------0------------------1---|



        C            G           C

e ------0------------3-----------0----------|
B ------1------------3-----------1----------|
G ------0------------4-----------0----------|
D ------2------------5-----------2----------|
A ------3------------5-----------3----------|
E ------0------------3-----------0----------|






Vers 2


        C            G          Am

e ------0------------3-----------0----------|
B ------1------------3-----------1----------|
G ------0------------4-----------2----------|
D ------2------------5-----------2----------|
A --0-2-3------------5-----------0----------|
E 3-----0------------3-----------x----------|

Universum är ett monster

        F            C           G

e ------1------------0-----------3----------|
B ------1------------1-----------3----------|
G --0---2------------0-----------4----------|
D 2-----3------------2-----------5----------|
A ------3------------3-----------5----------|
E ------1------------0-----------3----------|

men det har sparat dig och mig

        F            C    (Dm)          F

e ------1------------0--------1p0-------1---|
B ------1-----0------1-------3---3p1----1---|
G --0---2------------0------2-----------2---|
D 2-----3------------2-----0------------3---|
A ------3------------3------------------3---|
E ------1------------0------------------1---|

och jag gör vad som helst för att få ditt liv

        C            G           C

e ------0------------3-----------0----------|
B ------1------------3-----------1----------|
G ------0------------4-----------0----------|
D ------2------------5-----------2----------|
A ------3------------5-----------3----------|
E ------0------------3-----------0----------|

att verka bättre







Outro


        C            G          Am

e ------0------------3-----------0----------|
B ------1------------3-----------1----------|
G ------0------------4-----------2----------|
D ------2------------5-----------2----------|
A ------3------------5-----------0----------|
E ------0------------3-----------x----------|



        F            C           G

e ------1------------0-----------3----------|
B ------1------------1-----------3----------|
G ------2------------0-----------4----------|
D ------3------------2-----------5----------|
A ------3------------3-----------5----------|
E ------1------------0-----------3----------|




        C            F          Am

e ------0------------1-----------0----------|
B ------1------------1-----------1----------|
G ------0------------2-----------2----------|
D ------2------------3-----------2----------|
A ------3------------3-----------0----------|
E ------0------------1-----------x----------|

                                 ibland är en



        F            C       G       C

e ------1------------0-------3-------0------|
B ------1------------1-------3-------1------|
G ------2------------0-------4-------0------|
D ------3------------2-------5-------2------|
A ------3------------3-------5-------3------|
E ------1------------0-------3-------0------|

        lögn det finaste man har.


Listen to the song for right timing and chords.

When I listen to the song it not really played like this. It sounds like he's "tabbin" 
more than strumming. Please send me an e-mail if you find some changes!

s = slide
h = hammer on
p = pull off
b = bend
Tap to rate this tab
# A B C D E F G H I J K L M N O P Q R S T U V W X Y Z