Song name
# A B C D E F G H I J K L M N O P Q R S T U V W X Y Z

Hakan Hellstrom - Vid Protesfabrikens Stangsel chords

Highlighted       Show chord diagrams
Intro pick:

|---------2-0----- ---------2-3---0- -0-0-----------------|
|-0-0-1-3-----3-0- -0-0-1-3-----0--- -----3-3-0-3-0-0-----|
|----------------- ----------------- -----------------0-2-|
|----------------- ----------------- ---------------------|
|----------------- ----------------- ---------------------|
|----------------- ----------------- ---------------------|

 ------------------- --------------- ---------------------|
 -3-0-0-----0------- -------0------- -------0-------------|
 -------0-2---2-0--- ---0-2---2-0--- ---0-2---2-0-0-------|
 -----------------2- -2-----------2- -2-------------------|
 ------------------- --------------- ---------------------|
 ------------------- --------------- ---------------------|

Intro:

G, C, G, Em, C     G, D, G, D, Em, D, C, D, G


G             C           G
Vid protesfabrikens stängsel
          Em            C
La du din hand på min axel
              G            D    G    D    Em
Och sa att livet var något enkelt
        D        C  D        G       G
Men jag kunde inte hålla med dig



G        C                G
På en betonglagd äng stod vi
              Em                 C
Du bad mig ta kärlek lätt som en vind
               G              D     G    D    Em    
Men jag var så ung och dumdristig
            D                 C     D    G
Och tårarna rann ner för min kind



G                C             Em        C             G   D  G  D  Em
För vem kan glömma att stjärnorna någon gång blir stenar
            D    C   D          G
Vem vet hur länge vi har varandra
G                C                Em               C            
I en nedlagd hamnstad full av misstro och ohållbarhet
              G    D    G    D    Em    D    C    D    G
Mötte jag min kärlek
Tap to rate this tab
 
# A B C D E F G H I J K L M N O P Q R S T U V W X Y Z