Song name
# A B C D E F G H I J K L M N O P Q R S T U V W X Y Z

Hal Ketchum - Stay Forever tab

Neverstore - Stay Forever
Album: Sevenhundred Sundays

tabbed by Anton
antonhansson1@hotmail.com

tuning: Standard (EADGBE)

Bass Intro (x2)
G|-------------------------------------------------------------------------------|
D|-------------------------------------------------------------------------------|
A|-------------------------------3-3---------------------------------------------|
E|--3-5-5-5-3-5-5-5-3-5-5-5--3-3-------------------------------------------------|

Guitar Intro (comes in at the second time of the bass intro)
e|-------------------------------------------------------------------------------|
B|-------------------------------------------------------------------------------|
G|----------5~--------------5~---------------------------------------------------|
D|--7~------5~------3~------5~--5~-----------------------------------------------|
A|--7~------3~------3~------3~--5~-----------------------------------------------|
E|--5~--------------1~----------3~-----------------------------------------------|

Intro Guitar 1 (x4)                   (do this the 4th time instead of the last E)
e|-------------------------------------------------------------------------------|
B|-------------------------------------------------------------------------------|
G|--12--9--7--5--5--12--9--7--9--9------7/9/7/9/7--------------------------------|
D|--x---x--x--x--x--x---x--x--x--x------x/x/x/x/x--------------------------------|
A|--10--7--5--3--3--10--7--5--7--7------5/7/5/7/5--------------------------------|
E|-------------------------------------------------------------------------------|

Intro Guitar 2 (x4)
e|-------------------------------------------------------------------------------|
B|-------------------------------------------------------------------------------|
G|-----------5-5-5-5-----------5-5-----------------------------------------------|
D|--7-7-7-7--5-5-5-5--3-3-3-3--5-5--5-5------------------------------------------|
A|--7-7-7-7--3-3-3-3--3-3-3-3--3-3--5-5------------------------------------------|
E|--5-5-5-5-----------1-1-1-1-------3-3------------------------------------------|

Verse Part 1 (x2)
e|-------------------------------------------------------------------------------|
B|-------------------------------------------------------------------------------|
G|-----------------------------5-5-----------------------------------------------|
D|--7-x-x-x--x-x-x-x--3-x-x-x--5-5--5-5------------------------------------------|
A|--7-x-x-x--x-x-x-x--3-x-x-x--3-3--5-5------------------------------------------|
E|--5-x-x-x--x-x-x-x--1-x-x-x-------3-3------------------------------------------|

Verse Part 2 (x2)                           (After second time)  
e|-------------------------------------------------------------------------------|
B|-------------------------------------------------------------------------------|
G|-----------5-5-5-5-----------5-5-----------------------------------------------|
D|--7-7-7-7--5-5-5-5--3-3-3-3--5-5--5-5------3~----------------------------------|
A|--7-7-7-7--3-3-3-3--3-3-3-3--3-3--5-5------3~----------------------------------|
E|--5-5-5-5-----------1-1-1-1-------3-3------1~----------------------------------|

Chorus (x2)
e|-------------------------------------------------------------------------------|
B|-------------------------------------------------------------------------------|
G|--5-5-5-5-5-5-4-4--------------------------------------------------------------|
D|--5-5-5-5-5-5-5-5--7-7-7-7-7-7-7-7--3-3--5-5-----------------------------------|
A|--3-3-3-3-3-3-2-2--7-7-7-7-7-7-7-7--3-3--5-5-----------------------------------|
E|-------------------5-5-5-5-5-5-5-5--1-1--3-3-----------------------------------|

Post Chorus
e|-------------------------------------------------------------------------------|
B|-------------------------------------------------------------------------------|
G|-----------5-5-5-5-----------5-5-----------------------------------------------|
D|--7-7-7-7--5-5-5-5--3-3-3-3--5-5--5-5------------------------------------------|
A|--7-7-7-7--3-3-3-3--3-3-3-3--3-3--5-5------------------------------------------|
E|--5-5-5-5-----------1-1-1-1-------3-3------------------------------------------|

Intro (x2)

Verse Part 1 (x2)

Verse Part 2 (x2)   

Chorus (x2)

Bridge
e|-------------------------------------------------------------------------------|
B|-------------------------------------------------------------------------------|
G|------5-------5-------5-------5-------5-------5-------5-------5----------------|
D|----5---5---5---5---5---5---5---5---5---5---5---5---5---5---5---5--------------|
A|--3-------3-------3-------2--------0------0-------0----------------------------|
E|----------------------------------------------------------3--------------------|

(guitar does something like this, it's hard to hear cause of the bass)
e|-------------------------------------------------------------------------------|
B|-------------------------------------------------------------------------------|
G|------5-------5-------5-------5-------5-------5-------5-------5----------------|
D|----5---5---5---5---5---5---5---5---5---5---5---5---5---5---5---5--------------|
A|--3-------3-------3-------3-------3-------3-------3-------3--------------------|
E|-------------------------------------------------------------------------------|

Bass Part
G|-------------------------------------------------------------------------------|
D|-------------------------------------------------------------------------------|
A|---------------------------------------------------3-3-3-3-3-3-3-3-------------|
E|--1-1-1-1-1-1-1-1-1-1-1-1-1-1-1-1-1--3-3-3-3-3-3-3-----------------------------|

Last Chorus
e|-------------------------------------------------------------------------------|
B|-------------------------------------------------------------------------------|
G|--5~---------------------------------------------------------------------------|
D|--5~---------------7-7-7-7-7-7-7-7--3-3--5-5-----------------------------------|
A|--3~---------------7-7-7-7-7-7-7-7--3-3--5-5-----------------------------------|
E|-------------------5-5-5-5-5-5-5-5--1-1--3-3-----------------------------------|

e|-------------------------------------------------------------------------------|
B|-------------------------------------------------------------------------------|
G|--5-5-5-5-5-5-4-4--------------------------------------------------------------|
D|--5-5-5-5-5-5-5-5--7-7-7-7-7-7-7-7--3-3--5-5--7~-------------------------------|
A|--3-3-3-3-3-3-2-2--7-7-7-7-7-7-7-7--3-3--5-5--7~-------------------------------|
E|-------------------5-5-5-5-5-5-5-5--1-1--3-3--5~-------------------------------|

Intro (x4)

Ending
e|-------------------------------------------------------------------------------|
B|-------------------------------------------------------------------------------|
G|--14--10--9--7-----------------------------------------------------------------|
D|--x---x---x--x--5--6--7--------------------------------------------------------|
A|--12--12--7--5--5--6--7--------------------------------------------------------|
E|----------------3--4--5--------------------------------------------------------|


Enjoy!


Key

/ slide

x mute string

~ let ring

x
x scratch
x


Lyrics
Remember the days when we were hiding out all night 
I wanna go back there and tell you it's alright 
We used to say that it was us against the world 
We had the biggest dreams but now it's all forgotten 

I was so naive, I wanted you to stay forever 
I wanted it to last forever, I wanted you to stay forever 
I wanted it to last forever, but everything changes in time 

Remember the place we had behind the big old factory 
Just the two of us, I'd never felt so free 
All the secrets and the promises we made, made me 
feel like I was king a single day 

I was so naive, I wanted you to stay forever 
I wanted it to last forever, I wanted you to stay forever 
I wanted it to last forever, but everything changes in time 

I've got so much to say to you, I even wrote a song for you 
I never stop thinking about you 

I wanted you to stay forever, I wanted it to last forever 
I wanted you to stay forever, I wanted it to last forever 
but everything changes in time
Tap to rate this tab
# A B C D E F G H I J K L M N O P Q R S T U V W X Y Z