Song name
# A B C D E F G H I J K L M N O P Q R S T U V W X Y Z

Halcyonicfalconx - Acruta Lao Dnor tab

So this is Acruta Lao D'nor by HalcyonicFalconX (a.k.a. Phyrnna) which is featured 
in the free flash game: Epic Battle Fantasy III

Check out the song: http://www.newgrounds.com/audio/listen/359230
Check out the game: http://www.newgrounds.com/portal/view/548041

This is my first tab and I did it by ear so it may not be 100% accurate but I put 
a good deal of time into it so I'd like to think it's pretty good.


1st Riff: (Listen for the timing)

e||--------------------------|--------------------------------|
B||--------------------------|--------------------------------|
G||--------------------------|--------------------------------|
D||0---2---3-2-0-2----0---0-2|--0---2---3-2-0-2----0---2-3----|
A||--0---0----------0---0----|----1---1----------1---1--------|
E||--------------------------|--------------------------------|
   \<========( x2 )========>/

e|-------------------------------|
B|-------------------------------|
G|-------------------------------|
D|-0---2---3-2-0-2----0---0-2----|
A|-------------------------------|
E|---3---3----------3---3--------|


Chords: (One 4-count strum for each!)

      D     Bb    G     A
e|----x-----x-----x-----x----|
B|----3-----x-----x-----x----|
G|----2-----3-----x-----2----|
D|----0-----3-----5-----2----|
A|----0-----1-----5-----0----|
E|----x-----1-----3-----x----|


2nd Riff: (And my personal favorite.)

e|---------------------------------------------|
B|---------3-----------------------------------|
G|-----2-------------------0-------------------|
D|-3-0---0---3-0---0-2-0-3----3~-0~----0~-2----|
A|----------------------------------3~---------|
E|---------------------------------------------|


3rd Riff: (Short notes, play it with attitude!)

e|-------------------------------------------------------------------|
B|-------------------------------------------------------------------|
G|-------------------------------------------------------------------|
D|-------------------------------------------------------------------|
A|-5-5-3-5-5--3-5--5-5-3-5-3--3-3--5-5-3-5-5--3-5--5-5-3-5-7--5-3----|
E|-------------------------------------------------------------------|


Play in this order:

Riff 1 (x2)
Chords (x2)
Riff 2 (x2)
Riff 3 (x2)
Riff 2 (x2)
*piano* (or you can always play the chords again)
Riff 2 (x2)

There you have it! Acruta Lao D'nor by HalcyonicFalconX ! Great song, I had a lot of fun with it.

~Tabbed by Gherkinman
Tap to rate this tab
# A B C D E F G H I J K L M N O P Q R S T U V W X Y Z