Guitaretab - guitar tabs
Song name
# A B C D E F G H I J K L M N O P Q R S T U V W X Y Z

Hale - Hide And Seek tab

Artist:Hale
Song:Hide and Seek
Tabbed by:June Robert G. Corpuz
Email:junerobert_5@yahoo.com

Tuning:eBGDAE

Intro:

Guitar 1 and Guitar 2

e|-------------------------|
B|-------------------------|
G|--5555555555-------------|
D|--5555555555--2222222222-|  2x
A|--3333333333--2222222222-|
E|--------------0000000000-|

Verse 1 :

Guitar 1 and Guitar 2

e|-------------------------------------------------------------------------------------------------|
B|-------------------------------------------------------------------------------------------------|
G|--5555555555--------------5555555555--------------5555555555--------------5555555555-------------|
D|--5555555555--2222222222--5555555555--2222222222--5555555555--2222222222--5555555555--5555555555-|
A|--3333333333--2222222222--3333333333--2222222222--3333333333--2222222222--3333333333--5555555555-|
E|--------------0000000000--------------0000000000--------------0000000000--------------3333333333-|

Verse 1:

Youíre still as beautiful as I saw you
Youíre lovely like the way I want you to
Release these thoughts about you like I do
Corrupt your mind, I will explore your mind

Interlude :

Guitar 1 and Guitar 2

e|-------------------------|
B|-------------------------|
G|--5555555555-------------|
D|--5555555555--2222222222-|  2x
A|--3333333333--2222222222-|
E|--------------0000000000-|

Verse 2 :

Guitar 1 and Guitar 2

e|-------------------------------------------------------------------------------------------------|
B|-------------------------------------------------------------------------------------------------|
G|--5555555555--------------5555555555--------------5555555555--------------5555555555-------------|
D|--5555555555--2222222222--5555555555--2222222222--5555555555--2222222222--5555555555--5555555555-|
A|--3333333333--2222222222--3333333333--2222222222--3333333333--2222222222--3333333333--5555555555-|
E|--------------0000000000--------------0000000000--------------0000000000--------------3333333333-|

Verse 2 lyrics:

The morning afterís gone itís time to go
Convince this ordinary wish that wonít come true
The moment that youíll slip into my brain
Ignore my plea, you cannot see

Chorus :

Guitar 1 and Guitar 2

e|------------------------------------------------------------------------------------------------------|
B|------------------------------------------------------------------------------------------------------|
G|----------555555----------------------555555----------------------555555------------------------------|
D|--222222--555555--5555555555--222222--555555--5555555555--222222--555555--5555555555--222222222222222-|
A|--222222--333333--5555555555--222222--333333--5555555555--222222--333333--5555555555--222222222222222-|
E|--000000----------3333333333--000000----------3333333333--000000----------3333333333--000000000000000-|

Chorus Lyrics :

Treat me like a fool
Kiss me like I rule
Let me blow your mind
Use you from behind

Interlude :

Guitar 1 and Guitar 2

e|-------------------------|
B|-------------------------|
G|--5555555555-------------|
D|--5555555555--2222222222-|  2x
A|--3333333333--2222222222-|
E|--------------0000000000-|

Verse 3 :

Guitar 1

Guitar 1 and Guitar 2

e|-------------------------------------------------------------------------------------------------|
B|-------------------------------------------------------------------------------------------------|
G|--5555555555--------------5555555555--------------5555555555--------------5555555555-------------|
D|--5555555555--2222222222--5555555555--2222222222--5555555555--2222222222--5555555555--5555555555-|
A|--3333333333--2222222222--3333333333--2222222222--3333333333--2222222222--3333333333--5555555555-|
E|--------------0000000000--------------0000000000--------------0000000000--------------3333333333-|

Guitar 2

ipplay e2 pagktpos ng chord Em

e|------------------|
B|------------------|
G|------------7-7-7-|
D|--------5-5-------|
A|--7-7-7-----------|
E|------------------|

Verse 3 Lyrics :

Lifeís not as beautiful as I saw it
Thereís something in the way it doesn't fit
Release these thoughts about you like I do
Corrupt my mind, you will explore my mind

Interlude :

Guitar 1 and Guitar 2

e|-------------------------|
B|-------------------------|
G|--5555555555-------------|
D|--5555555555--2222222222-|  2x
A|--3333333333--2222222222-|
E|--------------0000000000-|

Verse 3 :

Guitar 1

Guitar 1 and Guitar 2

e|-------------------------------------------------------------------------------------------------|
B|-------------------------------------------------------------------------------------------------|
G|--5555555555--------------5555555555--------------5555555555--------------5555555555-------------|
D|--5555555555--2222222222--5555555555--2222222222--5555555555--2222222222--5555555555--5555555555-|
A|--3333333333--2222222222--3333333333--2222222222--3333333333--2222222222--3333333333--5555555555-|
E|--------------0000000000--------------0000000000--------------0000000000--------------3333333333-|

Guitar 2

ipplay e2 pagktpos ng chord Em

e|------------------|
B|------------------|
G|------------7-7-7-|
D|--------5-5-------|
A|--7-7-7-----------|
E|------------------|

Verse 4 lyrics:

I couldnít care less Ďbout what you feel
Iíll play you by the book like Iím used to
The moment that youíll slip into my brain
Ignore my plea, you cannot see

Chorus :

Guitar 1 and Guitar 2
[ Tab from: http://www.guitaretab.com/h/hale/149489.html ]
e|------------------------------------------------------------------------------------------------------|
B|------------------------------------------------------------------------------------------------------|
G|----------555555----------------------555555----------------------555555------------------------------|
D|--222222--555555--5555555555--222222--555555--5555555555--222222--555555--5555555555--222222222222222-|
A|--222222--333333--5555555555--222222--333333--5555555555--222222--333333--5555555555--222222222222222-|
E|--000000----------3333333333--000000----------3333333333--000000----------3333333333--000000000000000-|

Chorus Lyrics :

Treat me like a fool
Kiss me like I rule
Let me blow your mind
Use you from behind

Adblib :

Guitar 1

e|-------------------------|
B|-------------------------|
G|--------------5555555555-|
D|--5555555555--5555555555-|  4x
A|--5555555555--3333333333-|
E|--3333333333-------------|

Guitar 2

e|----------15-15-15--19-19-15-15-------19-19-15-15-------|
B|-\15-15-15----------------------15-15-------------15-15-|
G|--------------------------------------------------------|
D|--------------------------------------------------------|
A|--------------------------------------------------------|
E|--------------------------------------------------------|

e|-17-17-------------15--17-17-------------15-|
B|-------15-15----15-----------15-15----15----|
G|-------------16--------------------16-------|
D|--------------------------------------------|
A|--------------------------------------------|
E|--------------------------------------------|

e|-15-15-14-14---------14--15-15-14-14-----------------|
B|------------15-15--15---------------15-15------------|
G|-----------------16----------------------16-16-14-14-|
D|-----------------------------------------------------|
A|-----------------------------------------------------|
E|-----------------------------------------------------|

e|--------------------------------------------|
B|--------------------------------------------|
G|-12-12-12-12-12-12-12-12-12-12-12-12ó----12-|
D|------------------------------------12h14---|
A|--------------------------------------------|
E|--------------------------------------------|

e|-----------10----------------10---------|
B|-----12-12----12-12------12-12----12-12-|
G|-9h12---------------9h12----------------|
D|----------------------------------------|
A|----------------------------------------|
E|----------------------------------------|

e|-----------10-10-14-14-17-17-15-15-------|
B|-----12-12-------------------------------|
G|-9h12------------------------------------|
D|-----------------------------------------|
A|-----------------------------------------|
E|-----------------------------------------|

e|-/19-19-19-15-15-15-19-19-14-14-19-19-12-12------|
B|-------------------------------------------15-15-|
G|-------------------------------------------------|
D|-------------------------------------------------|
A|-------------------------------------------------|
E|-------------------------------------------------|

e|-12-12-12-12-12-12-12-12-12-12-12-12-12-12-12-12-|
B|-------------------------------------------------|
G|-------------------------------------------------|
D|-------------------------------------------------|
A|-------------------------------------------------|
E|-------------------------------------------------|

e|-----------------------------|
B|-----------------------------|
G|-----------------------------|
D|-12/9-12/9-12/9-12/9-12/9----|
A|-----------------------------|
E|-----------------------------|

Then...Sasabay ung drums d2...

Guitar 1 and Guitar 2

e|--------------------------------------------------------------------------------------|
B|--------------------------------------------------------------------------------------|
G|--555555--x--555555--x------------------------555555--x--555555--x--------------------|
D|--555555--x--555555--x--222222--x--222222--x--555555--x--555555--x--222222--x--222222-|
A|--333333--x--333333--x--222222--x--222222--x--333333--x--333333--x--222222--x--222222-|
E|------------------------000000--x--000000--x------------------------000000--x--000000-|

Cont'd

-------------------------------------------------------------------------------------|
-------------------------------------------------------------------------------------|
--5555-5555-5555-5555-----------------------5555-5555-5555-5555----------------------|
--5555-5555-5555-5555--2222-2222-2222-2222--5555-5555-5555-5555--2222-2222-2222-2222-|
--3333-3333-3333-3333--2222-2222-2222-2222--3333-3333-3333-3333--2222-2222-2222-2222-|
-----------------------0000-0000-0000-0000-----------------------0000-0000-0000-0000-|

Cont'd

-----------------------------|
-----------------------------|
----------------444444444444-|
--333333333333--444444444444-|
--333333333333--222222222222-|
--111111111111---------------|

Chorus :

Guitar 1 and Guitar 2

e|------------------------------------------------------------------------------------------------------|
B|------------------------------------------------------------------------------------------------------|
G|----------555555----------------------555555----------------------555555------------------------------|
D|--222222--555555--5555555555--222222--555555--5555555555--222222--555555--5555555555--222222222222222-|
A|--222222--333333--5555555555--222222--333333--5555555555--222222--333333--5555555555--222222222222222-|
E|--000000----------3333333333--000000----------3333333333--000000----------3333333333--000000000000000-|

Chorus Lyrics :

Treat me like a fool
Kiss me like I rule
Let me blow your mind
Use you from behind

Outro:

Bass:
G|---------------------------------|
D|-------4-4-5-5-5-------4-4-5-5-5-|
A|-3-3-3------------3-3-3----------|
E|---------------------------------|

G|------------------------------11-11-12-12-12-16-17-|
D|----------------------10-10-10---------------------|
A|---------9-9-10-10-10------------------------------|
E|-3/8-8-8-------------------------------------------|

                                             ~End~
Related for Hide And Seek tab