Song name
# A B C D E F G H I J K L M N O P Q R S T U V W X Y Z

Hale - Bahay Kubo tab

tabbed by: John Eman Egtic
           emanjohn@ymail.com

Date tabbed: October 10, 2009
             7:40 am

Rate it. C:


e-----5--7--9--5--7--12--10--9--7--5--7--9--5--7--12--10--9---|
B--7----------------------------------------------------------|
G-------------------------------------------------------------|1 beses lang to
D-------------------------------------------------------------|
A-------------------------------------------------------------|
E-------------------------------------------------------------|


e------------15-------------15-----------15---15---13---12----|
B--12--13---------12---13-------12--13------------------------|
G-------------------------------------------------------------|  (2X)
D-------------------------------------------------------------|
A-------------------------------------------------------------|
E-------------------------------------------------------------|
Tap to rate this tab
# A B C D E F G H I J K L M N O P Q R S T U V W X Y Z