Song name
# A B C D E F G H I J K L M N O P Q R S T U V W X Y Z

Hale - Bent Down tab

song title: Bent down
by: hale
klavenders13@yahoo.com
09302554183
tabbed by: craftoon_1352

message: it took 4 days before i finish this tab, i dont even eat my lunch for 
this so pls. appreciate this tab tnx hehehe
       -i wish that i right this song, its damn good to hear specially when 
        it comes my Crying moment


intro:}
e|-----0--------0---------|
B|-9-9--0---9-9--0--9--7--|
G|------------------------|
D|------------------------| (2X)
A|-7-7------7-7-----------|
E|------------------9--7--|
(E-E-C#m-B)


Verse 1:
    E                        A
My conscience is hurting my ear 
e|-----0------0-----------------0-----0---|
B|-9-9--0--9-9--0-----------5-5--0-5-5--0-|
G|----------------------------------------|
D|----------------------------------------|
A|-7-7-----7-7----------------------------|
E|--------------------------5-5----5-5----|


     C#m         B            A      
But im happy as long as you are 
e|---------0---------0---------0------0---|
B|-----9-9--0----7-7--0----5-5--0--5-5--0-|
G|----------------------------------------|
D|----------------------------------------|
A|----------------------------------------|
E|-----9-9-------7-7-------5-5-----5-5----|


   C#m               B
I hide if         I can 
e|-----0------0----------0-----0----------|
B|-9-9--0-9-9--0-----7-7--0-7-7--0--------|
G|----------------------------------------|
D|----------------------------------------|
A|----------------------------------------|
E|-9-9----9-9--------7-7----7-7-----------|

A                C#m       B A
I dont   care where I stand
e|----0-----------0---------0-------0------|
B|-5-5--0-----9-9--0-----7-7--0--5-5--0----|
G|-----------------------------------------|
D|-----------------------------------------|
A|-----------------------------------------|
E|-5-5--------9-9--------7-7-----5-5-------|
 
    F#m      A            B               (intro)
As long     as       you are bent down 
e|-------0------0-------------0------0--------|
B|-10-10--0-5-5--0--------7-7--0-7-7--0-------|
G|--------------------------------------------|
D|--------------------------------------------|
A|--9--9--------------------------------------|
E|----------5-5-----------7-7----7-7----------|


Verse 2: (do the tab in 1st verse)
You never said what does       it mean
e|-----0------0-----------------0-----0---|
B|-9-9--0--9-9--0-----------5-5--0-5-5--0-|
G|----------------------------------------|
D|----------------------------------------|
A|-7-7-----7-7----------------------------|
E|--------------------------5-5----5-5----|
 
Im      speaking the same words again
e|---------0---------0---------0------0---|
B|-----9-9--0----7-7--0----5-5--0--5-5--0-|
G|----------------------------------------|
D|----------------------------------------|
A|----------------------------------------|
E|-----9-9-------7-7-------5-5-----5-5----|
 
But I       will if you have to fall
e|-----0------0----------0-----0----------|
B|-9-9--0-9-9--0-----7-7--0-7-7--0--------|
G|----------------------------------------|
D|----------------------------------------|
A|----------------------------------------|
E|-9-9----9-9--------7-7----7-7-----------|
 
Im here if you want me at all
e|----0-----------0---------0-------0------|
B|-5-5--0-----9-9--0-----7-7--0--5-5--0----|
G|-----------------------------------------|
D|-----------------------------------------|
A|-----------------------------------------|
E|-5-5--------9-9--------7-7-----5-5-------| 
Just as long as you are bent down         (intro)
e|-------0------0-------------0------0--------|
B|-10-10--0-5-5--0--------7-7--0-7-7--0-------|
G|--------------------------------------------|
D|--------------------------------------------|
A|--9--9--------------------------------------|
E|----------5-5-----------7-7----7-7----------| 

Chorus:
C#m               C#m+M7
She               feels
e|-----0-----0--------0------0------------|
B|-9-9--0-9-9--0--9-9--0-9-9--0-----------|
G|----------------------------------------|
D|----------------------------------------|
A|----------------------------------------|
E|-9-9----9-9-----8-8----9-9--------------|
 
    F#m                B
im laid out for everything here
e|-------0---------0------0------0----------|
B|-10-10--0--10-10--0-7-7--0-7-7--0---------|
G|------------------------------------------|
D|------------------------------------------|
A|-9--9------9--9---------------------------|
E|--------------------7-7----7-7------------|
 
C#m               C#m+M7
She               keeps
e|-----0-----0--------0------0------------|
B|-9-9--0-9-9--0--9-9--0-9-9--0-----------|
G|----------------------------------------|
D|----------------------------------------|
A|----------------------------------------|
E|-9-9----9-9-----8-8----9-9--------------|

    F#m                      B
me away from this song of mine               (intro)
e|-------0---------0----------0------0----------|
B|-10-10--0--10-10--0-----7-7--0-7-7--0---------|
G|----------------------------------------------|
D|----------------------------------------------|
A|-9--9------9--9-------------------------------|
E|------------------------7-7----7-7------------|
 


Verse 3:(do 1st verse tab)
I dont know why this         wont stop
e|-----0------0-----------------0-----0---|
B|-9-9--0--9-9--0-----------5-5--0-5-5--0-|
G|----------------------------------------|
D|----------------------------------------|
A|-7-7-----7-7----------------------------|
E|--------------------------5-5----5-5----|
  
Cause   maybe it  just       wont stop
e|---------0---------0---------0------0---|
B|-----9-9--0----7-7--0----5-5--0--5-5--0-|
G|----------------------------------------|
D|----------------------------------------|
A|----------------------------------------|
E|-----9-9-------7-7-------5-5-----5-5----|
 
But it will if I hear you call
e|-----0------0----------0-----0----------|
B|-9-9--0-9-9--0-----7-7--0-7-7--0--------|
G|----------------------------------------|
D|----------------------------------------|
A|----------------------------------------|
E|-9-9----9-9--------7-7----7-7-----------|
 
But maybe you dont care at all
e|----0-----------0---------0-------0------|
B|-5-5--0-----9-9--0-----7-7--0--5-5--0----|
G|-----------------------------------------|
D|-----------------------------------------|
A|-----------------------------------------|
E|-5-5--------9-9--------7-7-----5-5-------| 
But at least your the       one bent down  (intro)
e|-------0------0-------------0------0--------|
B|-10-10--0-5-5--0--------7-7--0-7-7--0-------|
G|--------------------------------------------|
D|--------------------------------------------|
A|--9--9--------------------------------------|
E|----------5-5-----------7-7----7-7----------| 

(repeat chorus:}



(do 1st verse tab)
    You could be             here
e|-----0------0-----------------0-----0---|
B|-9-9--0--9-9--0-----------5-5--0-5-5--0-|
G|----------------------------------------|
D|----------------------------------------|
A|-7-7-----7-7----------------------------|
E|--------------------------5-5----5-5----|
 
Or       you       can be    here
e|---------0---------0---------0------0---|
B|-----9-9--0----7-7--0----5-5--0--5-5--0-|
G|----------------------------------------|
D|----------------------------------------|
A|----------------------------------------|
E|-----9-9-------7-7-------5-5-----5-5----|
   
As close as I can     hold
e|-----0------0----------0-----0----------|
B|-9-9--0-9-9--0-----7-7--0-7-7--0--------|
G|----------------------------------------|
D|----------------------------------------|
A|----------------------------------------|
E|-9-9----9-9--------7-7----7-7-----------|
 
Together as were told
e|----0-----------0---------0-------0------|
B|-5-5--0-----9-9--0-----7-7--0--5-5--0----|
G|-----------------------------------------|
D|-----------------------------------------|
A|-----------------------------------------|
E|-5-5--------9-9--------7-7-----5-5-------|
We were the ones bent down                 (intro 1 tine only)
e|-------0------0-------------0------0--------|
B|-10-10--0-5-5--0--------7-7--0-7-7--0-------|
G|--------------------------------------------|
D|--------------------------------------------|
A|--9--9--------------------------------------|
E|----------5-5-----------7-7----7-7----------| 
(outro)
e|-----0--------0---------|
B|-9-9--0---9-9--0--9--7--|
G|------------------------|
D|------------------------|
A|-7-7------7-7-----------|
E|------------------9--7--|

e|-----0--------0---5--7-9--12--|
B|-9-9--0---9-9--0--------------|
G|------------------------------|
D|------------------------------|
A|-7-7------7-7-----------------|
E|------------------5--7-7--12--|

"this song is dedicated for the person who brought me down, thank you so much, coz 
now im stronger enough to be worthless"
Tap to rate this tab
 
# A B C D E F G H I J K L M N O P Q R S T U V W X Y Z