Song name
# A B C D E F G H I J K L M N O P Q R S T U V W X Y Z

Hale - Day You Said Goodnight tab

#----------------------------------PLEASE NOTE--------------------------------#
#This file is the author's own work and represents their interpretation of the#
#song. You may only use this file for private study, scholarship, or research.#
#-----------------------------------------------------------------------------#

Author/Artist: Hale
Title: The Day You Said Goodnight
Album: Hale
Transcribed by: Leo Angelo Brunio

HALE Rocks!
ABZD, Flipside, Three suicide kings Rocks!

Note: Listen to the song for chord progression>>>>

CHORDS:
    E   B   A9 C#m F#m 
-|--0---0---0---0---2--|
-|--0---4---0---5---2--|
-|--1---4---2---6---2--|
-|--2---4---2---6---4--|
-|--2---2---0---4---4--|
-|--0---0---0---x---2--|

********
*Intro:*
********
-|--0---------0--0--0---|
-|--0---------4--4--0---|
-|--1---------4-----2---|
-|--2---------4-----2---|
-|--2---------2-----0---|
-|--0---------0-----x---|   
                                                                           
********
*Verse:*
********
-|--0---------0--0--0---|\
-|--0---------4--4--0---| \
-|--1---------4-----2---|  \
-|--2---------4-----2---|   \
-|--2---------2-----0---|    \
-|--0---------0-----x---|     \
   Take me as you are......     2X                                                

                      
-|--0----0----------0---|     /
-|--5----4----------0---|    /
-|--6----4----------2---|   /
-|--6----4----------2---|  /
-|--4----2----------0---| /
-|--x----0----------0---|/
   The sadness I need......

*************                                                                     

     
*Pre-chorus:*
*************
-|--0------0------0------0---|\
-|--5------4------0------4---| \
-|--6------4------2------4---|  \ 2X
-|--6------4------2------4---|  /
-|--4------2------0------2---| /  
-|--x------0------0------0---|/
   And I do reside in your......

Pre-chorus Lick:
-|--0----------|---------------|-------------|--0------------|
-|------4------|--2----0-------|----------0--|------4--------|
-|----------4--|---------------|------2------|----------4----|
-|-------------|------------2--|--2----------|---------------|
-|-------------|---------------|-------------|---------------|
-|-------------|---------------|-------------|---------------|
                                                                            
-|--0----------|---------------|-------------|
-|------4------|--2----0-------|----------0--|
-|----------4--|---------------|------2------|
-|-------------|------------2--|--2----------|
-|-------------|---------------|-------------|
-|-------------|---------------|-------------|

*********                                                                         

   
*Chorus:*
*********
-|--0------2------2------0---|\
-|--0------4------2------0---| \
-|--1------4------2------2---|  \  2X
-|--2------4------4------2---|  /
-|--2------2------4------0---| /
-|--0------0------2------0---|/
   To be is all I got to be......                           

*********                                                                         

    
*Bridge:*
*********
-|--0------0------0----------|
-|--5------4------0----------|
-|--6------4------2----------|
-|--6------4------2----------|
-|--4------2------0----------|
-|--x------0------0----------|
   If you could only know me......
                                                                          
-|--0------0------0------0---|
-|--5------4------0------4---|
-|--6------4------2------4---|
-|--6------4------2------4---|
-|--4------2------0------2---|
-|--x------0------0------0---| 
   And everything between you......	

********
*Outro:*
********
-|--0------2------2------0---|\
-|--0------4------2------0---| \
-|--1------4------2------2---|  \  2x
-|--2------4------4------2---|  /
-|--2------2------4------0---| /
-|--0------0------2------0---|/
  Shes already taken......

-|--0------2------2-------|
-|--0------4------2-------| 
-|--1------4------2-------|  
-|--2------4------4-------|  
-|--2------2------4-------| 
-|--0------0------2-------|
	      The day you said goodnight.....


LYRICS:

Verse:  E--
	Take me as you are 
                B          A9--
	Push me off the road 
	    C#m      B                  A9
	The sadness I need this time to be with you 
	E--
	I'm freezing in the sun 
		   B         A9-- 	
	I'm burning in the rain 
	    C#m     B
	The silence I'm screaming 
	        A9    
	Calling out your name 

Pre-chorus: (C#m-B-A9-B) 2x
	And I do 
	Reside in your light 
	Put out the fire with me and find 
	Yeah you lose the side of your circles 
	That's what I'll do if we say goodbye 

Chorus: (E-B-F#m-A9) 2x
	To be is all I got to be 
	And all that I see 
	And all that I need this time 
	To me the life you gave me 
	The day you said goodnight 

Verse2: (do verse chords)
	The calmness your face 
	That I see through the night 
	The warmth of your light is pressing unto us 
	You didn't ask me why 
	I never would have known 
	Oblivion is falling down 

Pre-chorus: (do pre-chorus chords)
	And I do 
	Reside in your light 
	Put out the fire with me and find 
	Yeah you lose the side of your circles 
	That's what I'll do if we say goodbye 

Chorus: (do chorus chords)
	To be is all I got to be 
	And all that I see 
	And all that I need this time 
	To me the life you gave me 
	The day you said goodnight 

Bridge: (C#m-B-A9---) (C#m-B-A9-B)
	If you could only know me 
	Like your prayers at night 
	Then everything between you and me 
	will be alright 

Chorus: (do chorus chords)
	To be is all I got to be 
	And all that I see 
	And all that I need this time 
	To me the life you gave me 
	The day you said goodnight 

Outro: (do chorus chords)
	She's already taken 
	She's already taken 
	She's already taken me 

	She's already taken 
	She's already taken me 

	The day you said goodnight
END.
Tap to rate this tab
# A B C D E F G H I J K L M N O P Q R S T U V W X Y Z