Guitaretab - guitar tabs
Song name
# A B C D E F G H I J K L M N O P Q R S T U V W X Y Z

Hale - Tollgate Live tab

-------------------------------------------------------------------------------
			     Tollgate - Hale
-------------------------------------------------------------------------------
Tabbed by:Al Hilado
Email:drakenguard99@yahoo.com

before you react pls
I tab this base on hale's live concerts and
performances, not the cd..
anyways if you have comments and reactions..
PM lng me po kung my problema or mali sa tab..

they play this song differently w/o 
the piano

EDIT: if ur not satisfied, heres the link..

1 http://youtube.com/watch?v=aGeXzPQTM5g&search=tollgate
2 http://youtube.com/watch?v=w3rhIZr5Dv4&search=tollgate

1 clear solo of roll,not sure about the tab though
2 whole song without the piano

Tuning:standard

guitar 1 Champ - rythms
guitar 2 Roll  - lead

intro

e|-------------------------------------|---------------------------------|
B|-------------------------------------|---------------------------------|
G|-9---9---9---9---9---9---9---9---9---|-6---6---6---6---6---6---6---6---|
D|-9-9-9-9-9-9-9-9-9-9-9-9-9-9-9-9-9-9-|-6-6-6-6-6-6-6-6-6-6-6-6-6-6-6-6-|
A|-7-7-7-7-7-7-7-7-7-7-7-7-7-7-7-7-7-7-|-4-4-4-4-4-4-4-4-4-4-4-4-4-4-4-4-|
E|-------------------------------------|---------------------------------|
 |
e|-------------------------------------|-0-0-0-0-0-0-0-0-0-0-0-0-0-0-0-0-|
B|-5-5-5-5-5-5-5-5-5-5-5h7-7-7-7-7h9-9-|-2-2-2-2-2-2-2-2-2-2-2-2-2-2-2-2-|
G|-------------------------------------|---------------------------------|
D|-------------------------------------|---------------------------------|
A|-------------------------------------|---------------------------------|
E|-------------------------------------|---------------------------------|

e|-------------------------------------|---------------------------------|
B|-------------------------------------|---------------------------------|
G|-4---4---4---4---4---4---4---4---4---|-4---4---4---4---4---4---4---4---|
D|-4-4-4-4-4-4-4-4-4-4-4-4-4-4-4-4-4-4-|-4---4---4---4---4---4---4---4---|
A|-2-2-2-2-2-2-2-2-2-2-2-2-2-2-2-2-2-2-|-2-2-2-2-2-2-2-2-2-2-2-2-2-2-2-2-|
E|-------------------------------------|---------------------------------|
 |
e|-------------------------------------|---0---0---0---0---0---0---0---0-|
B|-0---0---0---0---0---0---0---0---0---|---2---2---2---2---2---2---2---2-|
G|-4---4---4---4---4---4---4---4---4---|---2---2---2---2---2---2---2---2-|
D|-------------------------------------|---------------------------------|
A|-------------------------------------|---------------------------------|
E|-------------------------------------|---------------------------------|

verse 1

   Iím leaviní            Iím buckling tight
e|-------------------------------------|---------------------------------|
B|-------------------------------------|---------------------------------|
G|-9---9---9---9---9---9---9---9---9---|-6---6---6---6---6---6---6---6---|
D|-9-9-9-9-9-9-9-9-9-9-9-9-9-9-9-9-9-9-|-6-6-6-6-6-6-6-6-6-6-6-6-6-6-6-6-|
A|-7-7-7-7-7-7-7-7-7-7-7-7-7-7-7-7-7-7-|-4-4-4-4-4-4-4-4-4-4-4-4-4-4-4-4-|
E|-------------------------------------|---------------------------------|
 |
e|-------------------------------------|-0-0-0-0-0-0-0-0-0-0-0-0-0-0-0-0-|
B|-5-5-5-5-5-5-5-5-5-5-5h7-7-7-7-7h9-9-|-2-2-2-2-2-2-2-2-2-2-2-2-2-2-2-2-|
G|-------------------------------------|---------------------------------|
D|-------------------------------------|---------------------------------|
A|-------------------------------------|---------------------------------|
E|-------------------------------------|---------------------------------|
 
   I turn on the radio     Iím driving out of sight             And Iím in
e|-------------------------------------|---------------------------------|
B|-------------------------------------|---------------------------------|
G|-4---4---4---4---4---4---4---4---4---|-4---4---4---4---4---4---4---4---|
D|-4-4-4-4-4-4-4-4-4-4-4-4-4-4-4-4-4-4-|-4---4---4---4---4---4---4---4---|
A|-2-2-2-2-2-2-2-2-2-2-2-2-2-2-2-2-2-2-|-2-2-2-2-2-2-2-2-2-2-2-2-2-2-2-2-|
E|-------------------------------------|---------------------------------|
 |
e|-------------------------------------|---0---0---0---0---0---0---0---0-|
B|-0---0---0---0---0---0---0---0---0---|---2---2---2---2---2---2---2---2-|
G|-4---4---4---4---4---4---4---4---4---|---2---2---2---2---2---2---2---2-|
D|-------------------------------------|---------------------------------|
A|-------------------------------------|---------------------------------|
E|-------------------------------------|---------------------------------|
 
    the freeway,The lights are lost in your eyes
e|-------------------------------------|---------------------------------|
B|-------------------------------------|---------------------------------|
G|-9---9---9---9---9---9---9---9---9---|-6---6---6---6---6---6---6---6---|
D|-9-9-9-9-9-9-9-9-9-9-9-9-9-9-9-9-9-9-|-6-6-6-6-6-6-6-6-6-6-6-6-6-6-6-6-|
A|-7-7-7-7-7-7-7-7-7-7-7-7-7-7-7-7-7-7-|-4-4-4-4-4-4-4-4-4-4-4-4-4-4-4-4-|
E|-------------------------------------|---------------------------------|
 |
e|-------------------------------------|-0-0-0-0-0-0-0-0-0-0-0-0-0-0-0-0-|
B|-5-5-5-5-5-5-5-5-5-5-5h7-7-7-7-7h9-9-|-2-2-2-2-2-2-2-2-2-2-2-2-2-2-2-2-|
G|-------------------------------------|---------------------------------|
D|-------------------------------------|---------------------------------|
A|-------------------------------------|---------------------------------|
E|-------------------------------------|---------------------------------|

 Things have been said, Iím lost in my head, Itís time to go home
e|-------------------------------------|---------------------------------|
B|-------------------------------------|---------------------------------|
G|-4---4---4---4---4---4---4---4---4---|-4---4---4---4---4---4---4---4---|
D|-4-4-4-4-4-4-4-4-4-4-4-4-4-4-4-4-4-4-|-4---4---4---4---4---4---4---4---|
A|-2-2-2-2-2-2-2-2-2-2-2-2-2-2-2-2-2-2-|-2-2-2-2-2-2-2-2-2-2-2-2-2-2-2-2-|
E|-------------------------------------|---------------------------------|
 |
e|-------------------------------------|---0---0---0---0---0---0---0---0-|
B|-0---0---0---0---0---0---0---0---0---|---2---2---2---2---2---2---2---2-|
G|-4---4---4---4---4---4---4---4---4---|---2---2---2---2---2---2---2---2-|
D|-------------------------------------|---------------------------------|
A|-------------------------------------|---------------------------------|
E|-------------------------------------|---------------------------------|

SOLO!!
this is the piano part but actually when hale plays live they use guitar..
w/ effects!im not into effects so sorry i dunno wat kind of effect rolls 
using..
lots of alternate picking here listen or watch the live version of the 
song to get the timing or you can just skip the "0"... anyway it sounds 
close enough
to the real thing..

 E                          
e|---0--0-17-0--0--0--0-17-0--0--0--0-17-0--0--0--0-17-0---|
B|----14------16----14------15----14------16----14------15-|
G|-17------------17------------17------------17------------|
D|---------------------------------------------------------|
A|---------------------------------------------------------|
E|---------------------------------------------------------|
 C#m
e|---0--0-15-0--0--0--0-15-0--0--0--0-15-0--0--0--0-15-0---|
B|----12------14----12------13----12------14----12------13-|
G|-15------------15------------15------------15------------|
D|---------------------------------------------------------|
A|---------------------------------------------------------|
E|---------------------------------------------------------|
 B
e|---0--0-17-0--0--0--0-17-0--0--0--0-17-0--0--0--0-17-0---|
B|----14------16----14------15----14------16----14------15-|
G|-17------------17------------17------------17------------|
D|---------------------------------------------------------|
A|---------------------------------------------------------|
 A
e|----0---0---0---0--16-0-16-0--0---0---0--0--0--0-16-16---|
B|-13--13--15--15-------------15-----13--13-15-15-------15-|
G|--------------------------------16-----------------------|
D|---------------------------------------------------------|
A|---------------------------------------------------------|
E|---------------------------------------------------------|

verse 2

Iím moving..   so fast I canít look back               The streetlights are 
e|-------------------------------------|---------------------------------|
B|-------------------------------------|---------------------------------|
G|-9---9---9---9---9---9---9---9---9---|-6---6---6---6---6---6---6---6---|
D|-9-9-9-9-9-9-9-9-9-9-9-9-9-9-9-9-9-9-|-6-6-6-6-6-6-6-6-6-6-6-6-6-6-6-6-|
A|-7-7-7-7-7-7-7-7-7-7-7-7-7-7-7-7-7-7-|-4-4-4-4-4-4-4-4-4-4-4-4-4-4-4-4-|
E|-------------------------------------|---------------------------------|
 |
e|-0~----------------------------------|-0~--0---0-0---0---0---0-0---0-0-|
B|-0~----------------------------------|-0~--0---0-0---0---0---0-0---0-0-|
G|-9~----------------------------------|-6~--6---6-6---6---6---6-6---6-6-|
D|-9~----------------------------------|-6~--6---6-6---6---6---6-6---6-6-|
A|-7~----------------------------------|-4~--4---4-4---4---4---4-4---4-4-|
E|-0~----------------------------------|-0~------------0-------------0---|

   changing        They mean nothiní  at all          Maybe Iím 
e|-------------------------------------|---------------------------------|
B|-------------------------------------|---------------------------------|
G|-4---4---4---4---4---4---4---4---4---|-2-2-2-2-2-2-2-2-2-2-2-2-2-2-2-2-|
D|-4-4-4-4-4-4-4-4-4-4-4-4-4-4-4-4-4-4-|-2-2-2-2-2-2-2-2-2-2-2-2-2-2-2-2-|
A|-2-2-2-2-2-2-2-2-2-2-2-2-2-2-2-2-2-2-|---------------------------------|
E|-------------------------------------|---------------------------------|
[ Tab from: http://www.guitaretab.com/h/hale/72404.html ]
e|-------------------------------------|---0---0---0---0---0---0---0---0-|
B|-0---0---0---0---0---0---0---0---0---|---2---2---2---2---2---2---2---2-|
G|-4---4---4---4---4---4---4---4---4---|---2---2---2---2---2---2---2---2-|
D|-------------------------------------|---------------------------------|
A|-------------------------------------|---------------------------------|
E|-------------------------------------|---------------------------------|

 stranded...  Iím stuck in this space alone                I look at the 
e|-------------------------------------|---------------------------------|
B|-------------------------------------|---------------------------------|
G|-9---9---9---9---9---9---9---9---9---|-6---6---6---6---6---6---6---6---|
D|-9-9-9-9-9-9-9-9-9-9-9-9-9-9-9-9-9-9-|-6-6-6-6-6-6-6-6-6-6-6-6-6-6-6-6-|
A|-7-7-7-7-7-7-7-7-7-7-7-7-7-7-7-7-7-7-|-4-4-4-4-4-4-4-4-4-4-4-4-4-4-4-4-|
E|-------------------------------------|---------------------------------|
 |
e|-------------------------------------|-0-0-0-0-0-0-0-0-0-0-0-0-0-0-0-0-|
B|-5-5-5-5-5-5-5-5-5-5-5h7-7-7-7-7h9-9-|-2-2-2-2-2-2-2-2-2-2-2-2-2-2-2-2-|
G|-------------------------------------|---------------------------------|
D|-------------------------------------|---------------------------------|
A|-------------------------------------|---------------------------------|
E|-------------------------------------|---------------------------------|

   window...        Tomorrow will be fine            Letís call it a day
e|-------------------------------------|---------------------------------|
B|-------------------------------------|---------------------------------|
G|-4---4---4---4---4---4---4---4---4---|-4---4---4---4---4---4---4---4---|
D|-4-4-4-4-4-4-4-4-4-4-4-4-4-4-4-4-4-4-|-4---4---4---4---4---4---4---4---|
A|-2-2-2-2-2-2-2-2-2-2-2-2-2-2-2-2-2-2-|-2-2-2-2-2-2-2-2-2-2-2-2-2-2-2-2-|
E|-------------------------------------|---------------------------------|
 |
e|-------------------------------------|---0---0---0---0---0---0---0---0-|
B|-0---0---0---0---0---0---0---0---0---|---2---2---2---2---2---2---2---2-|
G|-4---4---4---4---4---4---4---4---4---|---2---2---2---2---2---2---2---2-|
D|-------------------------------------|---------------------------------|
A|-------------------------------------|---------------------------------|
E|-------------------------------------|---------------------------------|

                     Lets call it a day                Lets call it a day
e|-------------------------------------|---------------------------------|
B|-------------------------------------|---------------------------------|
G|-9---9---9---9---9---9---9---9---9---|-6---6---6---6---6---6---6---6---|
D|-9-9-9-9-9-9-9-9-9-9-9-9-9-9-9-9-9-9-|-6-6-6-6-6-6-6-6-6-6-6-6-6-6-6-6-|
A|-7-7-7-7-7-7-7-7-7-7-7-7-7-7-7-7-7-7-|-4-4-4-4-4-4-4-4-4-4-4-4-4-4-4-4-|
E|-------------------------------------|---------------------------------|
 |
e|-------------------------------------|---------------------------------|
B|-------------------------------------|---------------------------------|
G|-9---9---9---9---9---9---9---9---9---|-6---6---6---6---6---6---6---6---|
D|-9-9-9-9-9-9-9-9-9-9-9-9-9-9-9-9-9-9-|-6-6-6-6-6-6-6-6-6-6-6-6-6-6-6-6-|
A|-7-7-7-7-7-7-7-7-7-7-7-7-7-7-7-7-7-7-|-4-4-4-4-4-4-4-4-4-4-4-4-4-4-4-4-|
E|-------------------------------------|---------------------------------|
 
                   Letís call it a day                 Letís call it a day
e|-------------------------------------|---------------------------------|
B|-------------------------------------|---------------------------------|
G|-4---4---4---4---4---4---4---4---4---|-2-2-2-2-2-2-2-2-2-2-2-2-2-2-2-2-|
D|-4-4-4-4-4-4-4-4-4-4-4-4-4-4-4-4-4-4-|-2-2-2-2-2-2-2-2-2-2-2-2-2-2-2-2-|
A|-2-2-2-2-2-2-2-2-2-2-2-2-2-2-2-2-2-2-|---------------------------------|
E|-------------------------------------|---------------------------------|
 |
e|-------------------------------------|---------------------------------|
B|-------------------------------------|---------------------------------|
G|-4---4---4---4---4---4---4---4---4---|-2-2-2-2-2-2-2-2-2-2-2-2-2-2-2-2-|
D|-4-4-4-4-4-4-4-4-4-4-4-4-4-4-4-4-4-4-|-2-2-2-2-2-2-2-2-2-2-2-2-2-2-2-2-|
A|-2-2-2-2-2-2-2-2-2-2-2-2-2-2-2-2-2-2-|---------------------------------|
E|-------------------------------------|---------------------------------|

Bridge

e|-------------------------------------|---------------------------------|
B|-------------------------------------|---------------------------------|
G|-9---9---9---9---9---9---9---9---9---|-6---6---6---6---6---6---6---6---|
D|-9-9-9-9-9-9-9-9-9-9-9-9-9-9-9-9-9-9-|-6-6-6-6-6-6-6-6-6-6-6-6-6-6-6-6-|
A|-7-7-7-7-7-7-7-7-7-7-7-7-7-7-7-7-7-7-|-4-4-4-4-4-4-4-4-4-4-4-4-4-4-4-4-|
E|-------------------------------------|---------------------------------|
 |
e|-------------------------------------|---------------------------------|
B|-------------------------------------|---------------------------------|
G|-9---9---9---9---9---9---9---9---9---|-6---6---6---6---6---6---6---6---|
D|-9-9-9-9-9-9-9-9-9-9-9-9-9-9-9-9-9-9-|-6-6-6-6-6-6-6-6-6-6-6-6-6-6-6-6-|
A|-7-7-7-7-7-7-7-7-7-7-7-7-7-7-7-7-7-7-|-4-4-4-4-4-4-4-4-4-4-4-4-4-4-4-4-|
E|-------------------------------------|---------------------------------|

e|-------------------------------------|---------------------------------|
B|-------------------------------------|---------------------------------|
G|-4---4---4---4---4---4---4---4---4---|---------------------------------|
D|-4-4-4-4-4-4-4-4-4-4-4-4-4-4-4-4-4-4-|-7-7-7-7-7-7-7-7-7-7-7-7-7-7-7-7-|
A|-2-2-2-2-2-2-2-2-2-2-2-2-2-2-2-2-2-2-|-7-7-7-7-7-7-7-7-7-7-7-7-7-7-7-7-|
E|-------------------------------------|-5-5-5-5-5-5-5-5-5-5-5-5-5-5-5-5-|

e|-------------------------------------|---------------------------------|
B|-------------------------------------|-0-0-0-0-0-0-0-0-0-0-0-0-0-0-0-0-|
G|-4---4---4------4/6----6/7----7/9----|-2-2-2-2-2-2-2-2-2-2-2-2-2-2-2-2-|
D|-4-4-4-4-4-4----x-x----x-x----x/x----|-2-2-2-2-2-2-2-2-2-2-2-2-2-2-2-2-|
A|-2-2-2-2-2-2----2/4----4/5----5/7----|---------------------------------|
E|-------------------------------------|---------------------------------|

verse 3
  Itís over, Iím turniní off the lights
e|-0~----------------------------------|-0~--0---0-0---0---0---0-0---0-0-|
B|-0~----------------------------------|-0~--0---0-0---0---0---0-0---0-0-|
G|-9~----------------------------------|-6~--6---6-6---6---6---6-6---6-6-|
D|-9~----------------------------------|-6~--6---6-6---6---6---6-6---6-6-|
A|-7~----------------------------------|-4~--4---4-4---4---4---4-4---4-4-|
E|-0~----------------------------------|-0~------------0-------------0---|
 |
e|-0~----------------------------------|-0~--0---0-0---0---0---0-0---0-0-|
B|-0~----------------------------------|-0~--0---0-0---0---0---0-0---0-0-|
G|-9~----------------------------------|-6~--6---6-6---6---6---6-6---6-6-|
D|-9~----------------------------------|-6~--6---6-6---6---6---6-6---6-6-|
A|-7~----------------------------------|-4~--4---4-4---4---4---4-4---4-4-|
E|-0~----------------------------------|-0~------------0-------------0---|

 This day maybe through Iím here without you And I donít have a clue
e|-------------------------------------|---------------------------------|
B|-------------------------------------|---------------------------------|
G|-4~-------------------4~-------------|---------------------------------|
D|-4~-------------------4~-------------|---------------------------7-7-7-|
A|-2~-------------------2~-------------|---------------------------7-7-7-|
E|-------------------------------------|---------------------------5-5-5-|
 |
e|-------------------------------------|---------------------------------|
B|-0--------------------0--------------|---------------------------0-0-0-|
G|-4~-------------------4~-------------|---------------------------2-2-2-|
D|-4~-------------------4~-------------|---------------------------2-2-2-|
A|-2~-------------------2~-------------|---------------------------------|
E|-------------------------------------|---------------------------------|

 But tomorrow youíre gone, Tomorrow weíre gone
e|-------------------------------------|---------------------------------|
B|-------------------------------------|---------------------------------|
G|-9---9---9---9---9---9---9---9---9---|-6---6---6---6---6---6---6---6---|
D|-9-9-9-9-9-9-9-9-9-9-9-9-9-9-9-9-9-9-|-6-6-6-6-6-6-6-6-6-6-6-6-6-6-6-6-|
A|-7-7-7-7-7-7-7-7-7-7-7-7-7-7-7-7-7-7-|-4-4-4-4-4-4-4-4-4-4-4-4-4-4-4-4-|
E|-------------------------------------|---------------------------------|
 |
e|-------------------------------------|---------------------------------|
B|-------------------------------------|---------------------------------|
G|-9---9---9---9---9---9---9---9---9---|-6---6---6---6---6---6---6---6---|
D|-9-9-9-9-9-9-9-9-9-9-9-9-9-9-9-9-9-9-|-6-6-6-6-6-6-6-6-6-6-6-6-6-6-6-6-|
A|-7-7-7-7-7-7-7-7-7-7-7-7-7-7-7-7-7-7-|-4-4-4-4-4-4-4-4-4-4-4-4-4-4-4-4-|
E|-------------------------------------|---------------------------------|

 Tomorrow weíre gone, Tomorrow youíre gone
e|-------------------------------------|---------------------------------|
B|-------------------------------------|---------------------------------|
G|-4---4---4---4---4---4---4---4---4---|---------------------------------|
D|-4-4-4-4-4-4-4-4-4-4-4-4-4-4-4-4-4-4-|-7-7-7-7-7-7-7-7-7-7-7-7-7-7-7-7-|
A|-2-2-2-2-2-2-2-2-2-2-2-2-2-2-2-2-2-2-|-7-7-7-7-7-7-7-7-7-7-7-7-7-7-7-7-|
E|-------------------------------------|-5-5-5-5-5-5-5-5-5-5-5-5-5-5-5-5-|
 |
e|-------------------------------------|---------------------------------|
B|-------------------------------------|---------------------------------|
G|-4---4---4---4---4---4---4---4---4---|-2-2-2-2-2-2-2-2-2-2-2-2-2-2-2-2-|
D|-4-4-4-4-4-4-4-4-4-4-4-4-4-4-4-4-4-4-|-2-2-2-2-2-2-2-2-2-2-2-2-2-2-2-2-|
A|-2-2-2-2-2-2-2-2-2-2-2-2-2-2-2-2-2-2-|---------------------------------|
E|-------------------------------------|---------------------------------|

Tomorrow youíll come...

hi nga po sa mga taga HCDC.. sana magustuhan nyo 2..
===============================================================================
Related for Tollgate Live tab