Song name
# A B C D E F G H I J K L M N O P Q R S T U V W X Y Z

Halestorm - Its Not You tab

----------------------------------------------------------------------------
			     SONG NAME - Band Name
----------------------------------------------------------------------------
Tabbed by:Kse19852009
Email:buttered_toast14@sbcglobal.net
This is very skelital and its just the rythem but all the parts are there you just need 
use to put them where they goby listening to the song.  And I havent figured out the 
that will take some time.  If this is isnt enough its at least a decent start.
Tuning:C#,G#,C#,F#,A#,D#
Inro / chorus
e|--------------------------------------------------------------------------|
B|--------------------------------------------------------------------------|
G|--------------------------------------------------------------------------|
D|--7--9-9-7-3------7--7\----2--2-2--7--9-9-7-3----------------5-2----------|
A|--7--7-7-7-3----xx5--5\0-0-2--2-2--7--7-7-7-3----------------5-2----------|
E|--7--7-7-7-3----xx5--5\0-0-2--2-2--7--7-7-7-3----5555555555555-2----------|
 Verse                 pm___                     pm____________
e|---------------------------------------------------------------------------|
B|---------------------------------------------------------------------------|
G|---------------------------------------------------------------------------|
D|---------------3------------3-------------------3-------------------3------|
A|---------------3------------3-------------------30------------------30-----|
E|-0-0-00-000000030-0-0-00-00030----0-0-00-000000030----0-0-00-000000030-----|
pm_______________ ____________ _    ______________      ______________
e|---------------------------------------------------------------------------|
B|---------------------------------------------------------------------------|
G|---------------------------------------------------------------------------|
D|--30----30------------------33--3-7--7-3-----------------------------------|
A|--30----30------------------33--3-5--5-3-----------------------------------|
E|--30----30----0-0-00-000000033----5----3-20-20202320-----------------------|
              pm______________                ________     to intro/chorus then vrs
Bridge
e|---------------------------------------------------------------------------|
B|---------------------------------------------------------------------------|
G|---------------------------------------------------------------------------|
D|------------------2--22----------------------------------------------------|
A|------------------2--22----------------------------------------------------|
E|--55555555555555552--22223-------------------------------------------------|
 pm_________________      __        repeat as needed
e|---------------------------------------------------------------------------|
B|---------------------------------------------------------------------------|
G|---------------------Rythem for solol--------------------------------------|
D|---------------------------is just the-------------------------------------|
A|------------------------chorus---------------------------------------------|
E|---------------------------------------------------------------------------|
Tap to rate this tab
# A B C D E F G H I J K L M N O P Q R S T U V W X Y Z