Song name
# A B C D E F G H I J K L M N O P Q R S T U V W X Y Z

Halestorm - Love Bites So Do I tab

----------------------------------------------------------------
                love bites(so do I)-halestorm
----------------------------------------------------------------
tabed by:robbie.thecloud

tuning:drop d

e|-------------------------------------------------------------------------|
B|-------------------------------------------------------------------------|
G|-------------------------------------------------------------------------|
D|-----------------3/10\---3--0000-5-0000-65-0000-3--0000-5-0000-65-0000--3|
A|-----------------3/10\---3--0000-5-0000-65-0000-3--0000-5-0000-65-0000--3|
d|-----------------3/10\---3--0000-5-0000-65-0000-3--0000-5-0000-65-0000--3|
                              ****   ****    ****    ****   ****    **** 
e|-------------------------------------------------------------------------|
B|-------------------------------------------------------------------------|
G|-------------------------------------------------------------------------|
D|-0000-5-0000-65-0000--3-0000-5-0000-65-0000-3--0000-5-0000-65-0000-3--00-|
A|-0000-5-0000-65-0000--3-0000-5-0000-65-0000-3--0000-5-0000-65-0000-3--00-|
d|-0000-5-0000-65-0000--3-0000-5-0000-65-0000-3--0000-5-0000-65-0000-3--00-|
   ****   ****    ****    ****   ****    ****    ****   ****    ****    **
e|-------------------------------------------------------------------------|
B|-------------------------------------------------------------------------|
G|-------------------------------------------------------------------------|
D|00-5-0000-65-0000-3--0000-5-0000-65-0000-3--0000-5-0000-65---------------|
A|00-5-0000-65-0000-3--0000-5-0000-65-0000-3--0000-5-0000-65---------------|
d|00-5-0000-65-0000-3--0000-5-0000-65-0000-3--0000-5-0000-65---------------|
  **   ****    ****    ****   ****    ****    ****   ****     


**************************************

| /  slide up
| \  slide down
| h  hammer on
| p  pull off
| ~  vibrato
| +  harmonic
| x  mute note
| b  bend
| pb pre-bend
| br bend release
| pbr pre-bend release
| brb bend release bend

**************************************
Tap to rate this tab
 
# A B C D E F G H I J K L M N O P Q R S T U V W X Y Z