Song name
# A B C D E F G H I J K L M N O P Q R S T U V W X Y Z

Halestorm - Love Bites So Do I tab

-------------------------------------------------------------------------------
                             Love Bites (And So Do I)(Intro) - Halestorm
-------------------------------------------------------------------------------
Tabbed by: Matsugo
E-mail: gamelord317@gmail.com

Tuning: Drop D (D A D G B E)

e|------------------------------------------------------------------------------|
B|------------------------------------------------------------------------------|
G|------------------------------------------------------------------------------|
D|-----3/12-\0-----------------------5/6\5--------------------------------------|
A|-----3/12-\0-----------------------5/6\5--------------------------------------|
E|-----3/12-\0-0-0--3-0--0-0--5-0--0-5/6\5--------------------------------------|
              x x   p   x x   p   x
e|---------------------------------------------------------------------------|
B|---------------------------------------------------------------------------|
G|---------------------------------------------------------------------------|
D|-----0-------------------------5/6\5---------------------------------------|
A|-----0-------------------------5/6\5---------------------------------------|
E|-----0--0-0--3-0--0-0--5-0--0--5/6\5---------------------------------------|
          x x   p   x x   p   x

e|---------------------------------------------------------------------------|
B|---------------------------------------------------------------------------|
G|---------------------------------------------------------------------------|
D|-----0-------------------------5/6\5---------------------------------------|
A|-----0-------------------------5/6\5---------------------------------------|
E|-----0--0-0--3-0--0-0--5-0--0--5/6\5---------------------------------------|
          x x   p   x x   p   x

e|---------------------------------------------------------------------------|
B|---------------------------------------------------------------------------|
G|---------------------------------------------------------------------------|
D|-----0-------------------------5/6\5---------------------------------------|
A|-----0-------------------------5/6\5---------------------------------------|
E|-----0--0-0--3-0--0-0--5-0--0--5/6\5---------------------------------------|
          x x   p   x x   p   x

e|---------------------------------------------------------------------------|
B|---------------------------------------------------------------------------|
G|---------------------------------------------------------------------------|
D|-----0-------------------------5/6\5---------------------------------------|
A|-----0-------------------------5/6\5---------------------------------------|
E|-----0--0-0--3-0--0-0--5-0--0--5/6\5---------------------------------------|
          x x   p   x x   p   x

e|---------------------------------------------------------------------------|
B|---------------------------------------------------------------------------|
G|---------------------------------------------------------------------------|
D|-----0-------------------------5/6\5---------------------------------------|
A|-----0-------------------------5/6\5---------------------------------------|
E|-----0--0-0--3-0--0-0--5-0--0--5/6\5---------------------------------------|
          x x   p   x x   p   x

e|---------------------------------------------------------------------------|
B|---------------------------------------------------------------------------|
G|---------------------------------------------------------------------------|
D|-----0-------------------------5/6\5---------------------------------------|
A|-----0-------------------------5/6\5---------------------------------------|
E|-----0--0-0--3-0--0-0--5-0--0--5/6\5---------------------------------------|
          x x   p   x x   p   x


e|---------------------------------------------------------------------------|
B|---------------------------------------------------------------------------|
G|---------------------------------------------------------------------------|
D|-----0-------------------------5/6\5---------------------------------------|
A|-----0-------------------------5/6\5---------------------------------------|
E|-----0--0-0--3-0--0-0--5-0--0--5/6\5---------------------------------------|


e|---------------------------------------------------------------------------|
B|---------------------------------------------------------------------------|
G|---------------------------------------------------------------------------|
D|-----0-------------------------5/6\5---------------------------------------|
A|-----0-------------------------5/6\5---------------------------------------|
E|-----0--0-0--3-0--0-0--5-0--0--5/6\5---------------------------------------|

                                               e-------------|
                                               b-------------|
                                               g------5------|
                                               d------x------|
                                               a------7------|
Quick note: The backup guitar starts playing a E-------------| chord at the beginning of 
each measure after the 4th measure instead of the open
barre chord

Also note: I couldn't quite tell the number of times this was repeated, but
I thought I counted 10, I could be one or two off, it almost sounds like
they play the slide again before going into the main verse.

Also, this is my first tab, so sorry if it's a little off, but that's how I heard it and play
it (and it looks like that's how they play
it live)

************************************

| /   slide up
| \   slide down
| h   hammer-on
| p   pull-off
| ~   vibrato
| +   harmonic
| x   Mute note
| b   Bend
| pb  Pre-bend
| br  Bend release
| pbr Pre-bend release
| brb Bend release bend

************************************
Tap to rate this tab
# A B C D E F G H I J K L M N O P Q R S T U V W X Y Z