Song name
# A B C D E F G H I J K L M N O P Q R S T U V W X Y Z

Halestorm - Heres To Us tab

Title: Here's to us
Artist: Halestorm
Tabbed By: Chris (Swift Freeze)


This is my first tab and I decided to do it because the arpeggio for the verse had not been done.

Hopefully it is mostly correct, I did it by ear so there may be some small errors.

The strumming pattern for the chorus you will have to listen to to get it totaly right.

Please enjoy this great song by Halestorm.


Intro
Guitar

|---------------------------3--------|
|-----1-------1-------1---3---3-1----|
|-----------0---0-------0------------| x2
|---2---2-3---------2----------------|
|-3---------------0------------------|
|------------------------------------|

Verse
Guitar 

|---------------------------3--------|
|-----1-------1-------1---3---3-1----|
|-----------0---0-------0------------| x4
|---2---2-3---------2----------------|
|-3---------------0------------------|
|------------------------------------|


Verse Alternate
Guitar

|---------------------------3--------|
|-----1-------1-------1-------3-1----|
|--------0--0---0-----2-0-0----------| x3
|---2---2-3----3----2--2--0----------|
|-3---------------0-------2----------|
|-------------------------3----------|

|-------------------------3-3-3-3----|
|-----1-------1-------1---3-3-3-3----|
|--------0--0---0-----2-0-0-0-0-0----| x1
|---2---2-3----3----2--2--0-0-0-0----| 
|-3---------------0-------2-2-2-2----|
|-------------------------3-3-3-3----|

Chorus
Guitar

|-0--0-xx-3--3-xx-0--0-xx-1----------|
|-1-1-xx-3--3-xx-1--1-xx-1----------|
|-0--0-xx-0--0-xx-2--2-xx-2----------|
|-2--2-xx-0--0-xx-2--2-xx-3----------|
|-3--3-xx-2--3-xx------xx-3----3h5p3-|
|-x--x-xx-3--3-xx------xx-1-3h5------|

|-0--0-xx-3--3-xx-0--0-xx-1----------|
|-1-1-xx-3--3-xx-1--1-xx-1----------|
|-0--0-xx-0--0-xx-2--2-xx-2----------|
|-2--2-xx-0--0-xx-2--2-xx-3-3p20-----|
|-3--3-xx-2--3-xx------xx-3-----0h3--|
|-x--x-xx-3--3-xx------xx-1----------|

|-0--0-xx-3--3-xx-0--0-xx-1----------|
|-1-1-xx-3--3-xx-1--1-xx-1----------|
|-0--0-xx-0--0-xx-2--2-xx-2----------|
|-2--2-xx-0--0-xx-2--2-xx-3----------|
|-3--3-xx-2--3-xx------xx-3----3h5p3-|
|-x--x-xx-3--3-xx------xx-1-3h5------|

|-0--0-0x-3-3-3xx-0-0-0xx-1-1-1------|
|-1-1-1x-3-3-3xx-1-1-1xx-1-1-1------|
|-0--0-0x-0-0-0xx-2-2-2xx-2-2-2------|
|-2--2-2x-0-0-0xx-2-2-2xx-3-3-3------|
|-3--3-3x-2-2-2xx------xx-3-3-3------|
|-x--x-xx-3-3-3xx------xx-1-1-1------|

Bridge
Guitar

|-2-2--2--1--1--1--0--0--0--3--3--3-|
|-3--3--3--1--1--1--1--1--1--3--3--3-|
|-2--2--2--2--2--2--0--0--0--0--0--0-|
|-0--0--0--3--3--3--2--2--2--0--0--0-|
|----------3--3--3--3--3--3--2--2--2-|
|----------1--1--1--------3--3--3--3-|

|-1--1--1--1--1--1--1--1-------------|
|-1--1--1--1--1--1--1--1-------------|
|-2--2--2--2--2--2--2--2-------------|
|-3--3--3--3--3--3--3--3-------------|
|-1--3--3--3--3--3--3--3-------------|
|-1--1--1--1--1--1--1--1-------------|

|-3--3--3--3--3--3--3--3-------------|
|-3--3--3--3--3--3--3--3-------------|
|-0--0--0--0--0--0--0--0-------------|
|-0--0--0--0--0--0--0--0-------------|
|-2--2--2--2--2--2--2--2-------------|
|-3--3--3--3--3--3--3--3-------------|
Tap to rate this tab
# A B C D E F G H I J K L M N O P Q R S T U V W X Y Z