Song name
# A B C D E F G H I J K L M N O P Q R S T U V W X Y Z

Halestorm - Dirty Work tab

Hey guys! This is my first official tab, but I'm positive this one of many correct 
ways to play this solo. I learned it by ear, and there are probably a hundred 
other ways to go about this, but this is the one I've found the easiest. :D

Symbol Key:
b = bend up
s = squealie
/ = slide up
h = hammer on

D#|----------------------------------------------------------------------------|
A#|-10b----10b-------------------------10s----10b------------------------------|
F#|-----12-----12-12-14-15-14-12-----------12-----12-14-15-14-12---------------|
c#|------------------------------15-13-----------------------------------------|
G#|----------------------------------------------------------------------------|
C#|----------------------------------------------------------------------------|


D#|----------------------------------------------------------------------------|
A#|-15-12-12-15-16--12h-16------------------------------18-20------------------|
F#|-----------------------15-15-17-19-17-15-19-17/-19-20-----------------------|
c#|----------------------------------------------------------------------------|
G#|----------------------------------------------------------------------------|
D#|----------------------------------------------------------------------------|
Tap to rate this tab
# A B C D E F G H I J K L M N O P Q R S T U V W X Y Z