Song name
# A B C D E F G H I J K L M N O P Q R S T U V W X Y Z

Halestorm - I Miss The Misery tab

Halestorm
I Miss the Misery
Drop D

Tabbed by:
DethScarred from Youtube
DaveMustaine7 from UltimateGuitar

I guess I really do miss some misery because the page refreshed while I was
writing this out and I had to re-type it all 0.0

Intro / Chorus Part A
(0:04)
e|--------------------------------------------------|
b|--------------------------------------------------|
g|--------------------------------------------------|
D|----555-------------------------------------------|
A|777-333-5555-000-333------------------------------|
D|777-----5555-000-333------------------------------|

Verse (Palm Muting)
AND
Chorus Part B (Play without palm muting and with a little different rhythm)
(0:16)
e|--------------------------------------------------|
b|--------------------------------------------------|
g|--------------------------------------------------|
D|---------55555555----------77777777---------------|
A|77777777-33333333-55555555-55555555---------------|
D|77777777----------55555555------------------------|

Play Chorus Part A
Play Chorus Part B

Chorus Part C
(0:57)
e|--------------------------------------------------|
b|--------------------------------------------------|
g|--------------------------------------------------|
D|--------------------------------------------------|
A|333-3333-222-555----------------------------------|
D|333-3333-222-555----------------------------------|

Play Intro (1:02)
Back to Verse (1:09)

Break (Last part sounds very similar)
(1:55)
e|--------------------------------------------------|
b|--------------------------------------------------|
g|--------------------------------------------------|
D|--------------------------------------------------|
A|333-33-55-777-7757--------------------------------|
D|333-33-55-777-7757--------------------------------|

Break Part B (Unsure but sounds very similar to this)
(2:07)
e|-----------------------------------------------------|
b|-----------------------------------------------------|
g|-----------------------------------------------------|
D|-----------------------------------------------------|
A|33333333/s/77/s/88/s/10-10/s/12-12/s/15-15-15-15-15--|
D|33333333/s/77/s/88/s/10-10/s/12-12/s/15-15-15-15-15--|

Harmonics (Downstroke)
(2:18)
e|<7>--<7>--<7>-----------------------------------|
b|<7>--<7>--<7>-----------------------------------|
g|<7>--<7>--<7>-----------------------------------|
D|----------<7>-----------------------------------|
A|------------------------------------------------|
D|------------------------------------------------|

Play Chorus

Ending
(2:49)
e|--------------------------------------------------|
b|--------------------------------------------------|
g|--------------------------------------------------|
D|--------------------------------------------------|
A|777-555-444-333-555---777-555-444--3--------------|
D|777-555-444-333-555---777-555-444--3--------------|
Tap to rate this tab
# A B C D E F G H I J K L M N O P Q R S T U V W X Y Z