Song name
# A B C D E F G H I J K L M N O P Q R S T U V W X Y Z

Halestorm - Love Bites So Do I tab

-----------------------------------------------------------------
LOVE BITES (SO DO I) - Halestorm
-----------------------------------------------------------------
Tabbed by: Natalie


Email: punk11593@aol.com

This is one of my first tabs to submit on here. I love this song! I wanted to learn it, 
but noticed there were only a few tabs on ultimate-guitar for it and some I felt were
 either lacking accuracy, the right sound, or just parts. So I decided to learn it 
on my own and make a tab! A lot of it's improvised, but I think it sounds right. 
Let me know what you think. Any changes that you think should be made, suggestions, 
comments are appreciated. Sorry if it looks confusing. Thanks for viewing! Rock on.

Tuning: Drop D

121,2,1,2,3, GO!!!
Guitar 1
                            (This is the best I can guess for how the finger picking goes)
      INTRO                                            VERSE
e|------|-------------------|-----------------------------------------------------------|
B|------|-------------------|-----------------------------------------------------------|
G|------|-------------------|-----------------------------------------------------------|
D|------|-0000/3p00/5p0/6\5-|X8-----------000--------000------/88888888------/88888888--|
A|------|-0000/3p00/5p0/6\5-|-------------000--------000------/88888888------/88888888--|
D|-12\--|-0000/3p00/5p0/6\5-|-----653\0---000--0356--000--0356/88888888--0356/88888888--|


Guitar 2
 Start on 4th repeat
e|--------------------------|-------------------------------------|
B|--------------------------|-------------------------------------|
G|--------7-----------------|-------------------------------------|
D|--------x-----------------|X8-----------------------------------|
A|--------5-----------------|-------------------------------------|
D|-/12----------------------|-------------------------------------|


Guitar 1
         VERSE CONT.                          BRIDGE
e|-----------------------------------------------------------------------------|
B|-----------------------------------------------------------------------------|
G|-----------------------------------------------------------------------------|
D|-------000--------000------/88888888--333333/1010101010-888888-777777-55555--|
A|-------000--------000------/88888888--333333/1010101010-888888-777777-55555--|
D|-0356--000--0356--000--0356/88888888--333333/1010101010-888888-777777-55555--|
           xxx        xxx                      (10 not 1,0)


                       CHORUS
                       Love biiiites    but so do I      so do I!!!!!!
e|---------------------------------------------------------------------------------|
B|---------------------------------------------------------------------------------|
G|---------------------------------------------------------------------------------|
D|--------------------0000---3333---88888888---0000---3333---1010101010101088------|    X2   
A|-------------3h5----0000---3333---88888888---0000---3333---1010101010101088------|
D|-653653653035-------0000---3333---88888888---0000---3333---1010101010101088------|
   hammer-on & pull-off

 Guitar 2
e|------------------------------------------------------------------------------------|
B|------------------------------------------------------------------------------------|
G|------------------------------------------------------------------------------------|
D|----------------------------------------------------------------------3p0-----------|
A|-------------------------------------------------------------------------3p0p5p3----|
D|--------------------------------------------------------------------------------5p3-|


Guitar 1
                      2nd CHORUS
                       Love biiiites    but so do I      so do I!!!!!!
e|---------------------------------------------------------------------------------|
B|---------------------------------------------------------------------------------|
G|---------------------------------------------------------------------------------|
D|--------------------0000---3333---88888888---0000---3333---1010101010101088------|    X2   
A|-------------3h5----0000---3333---88888888---0000---3333---1010101010101088------|
D|-653653653035-------0000---3333---88888888---0000---3333---1010101010101088------|
 hammer-on & pull-off


 Guitar 2
e|------------------------------------------------------------------------------------|
B|------------------------------------------------------------------------------------|
G|------------------------------------------------------------------------------------|
D|----------------------------------------------------------------------3p0-----------|
A|-------------------------------------------------------------------------3p0p5p3----|
D|--------------------------------------------------------------------------------5p3-|


BREAKDOWN

Guitar 1

  So do I!!
e|---------------------------------------------------------------|
B|---------------------------------------------------------------|
G|---------------------------------------------------------------|
D|-8888-7777-55555-6-6-6-6--530----------------------------------|
A|-8888-7777-55555-6-6-6-6--530----------------------------------|
D|-8888-7777-55555-6-6-6-6--530----------------------------------|

(Not good with the solo parts, I know there's wayyy more to it. 
I just play it like this and it sounds fine)

e|---------------|----------------------------------|------------------|
B|---------------|----------------------------------|------------------|
G|---------------|----------------------------------|------------------|
D|---------------|----------------------------------|-X8---------------|
A|---------------|-------------------3h5p3h6p5p3h5--|------------------|
D|--5p3h4p3h5p3--|--3h5p3h5h6p5p3h5-----------------|-----0h2h3h5-x10--|

                                                   (Bunch of crazy stuff! O.O)


Guitar 1
                             CHORUS
 Love bites, but so do I   Love biiiites    but so do I      so do I!!!!!!
e|--------------------------------------------------------------------------------------|
B|--------------------------------------------------------------------------------------|
G|--------------------------------------------------------------------------------------|
D|--0----3------1------------0000---3333---88888888---0000---3333---1010101010101088----|   X2   
A|--0----3------1------------0000---3333---88888888---0000---3333---1010101010101088----|
D|--0----3------1------------0000---3333---88888888---0000---3333---1010101010101088----|

Guitar 2
                                                SOLO
e|----------------------------------------------------------------------------------------------------|
B|-------------------------------------------13/15\13---13----13-------------------------10/13\10--10-|
G|----------------------------------12/14-12----------14---14----10/12\10/12--10/12\10/12--------12---|
D|--------------------------12-12/15------------------------------------------------------------------|
A|----------------------------------------------------------------------------------------------------|
D|----------------/12---------------------------------------------------------------------------------|


                        OUTRO
e|---------------------------------------------------------------------|
B|---------------------------------------------------------------------|
G|---------------------------------------------------------------------|
D|--6-3--5-6-3--5-6-6-6-6-5-3-0----------------------------------------|
A|--6-3--5-6-3--5-6-6-6-6-5-3-0--------------------3h5-----------------|
D|--6-3--5-6-3--5-6-6-6-6-5-3-0------------6p5p3h5---------------------|
                                                (Then some crazy solo厀e'll use this)


THE END


| /  slide up
| \  slide down
| h  hammer-on
| p  pull-off
| ~  vibrato
| +  harmonic
| x  Mute note
Tap to rate this tab
# A B C D E F G H I J K L M N O P Q R S T U V W X Y Z