Song name
# A B C D E F G H I J K L M N O P Q R S T U V W X Y Z

Halestorm - I Miss The Misery tab

intro
e|--------------------------------|
b|--------------------------------|
g|--------------------------------|
D|--------5555--------------------|
A|7777----3333----5555555500000333|
D|7777------------5555555500000333|

verse
e|--------------------------------|
b|--------------------------------|
g|--------------------------------|
D|--------55555555----------------|
A|77777777333333335555555500000000|
D|77777777--------5555555500000000|

chorus
e|--------------------------------|
b|--------------------------------|
g|--------------------------------|
D|--------5555--------------------|
A|7777----3333----5555555500000333|
D|7777------------5555555500000333|x2


e|--------------------------------|
b|--------------------------------|
g|--------------------------------|
D|--------55555555--------77777777|
A|77777777333333335555555555555555|
D|77777777--------55555555--------|

e|--------------------------------|
b|--------------------------------|
g|--------------------------------|
D|--------------------------------|
A|3333333333333333222222225-------|
D|3333333333333333222222225-------|

intro
verse
chorus


e|--------------------------------|
b|--------------------------------|
g|--------------------------------|
D|--------------------------------|
A|3-3-3-3-3-3-5-5-7-7-7-7-7-7-7-7-|
D|3-3-3-3-3-3-5-5-7-7-7-7-7-7-7-7-|x2


e|------------------------------------|--------------------------------------------|
b|------------------------------------|--------------------------------------------|
g|------------------------------------|--------------------------------------------|
D|------------------------------------|--------------------------------------------|
A|3-3-3-3-3-3-5-5-7-7-9-9-10-10-12-12-|15-15-15-15-15-15-15-15-14-14-14-14-17------|
D|3-3-3-3-3-3-5-5-7-7-9-9-10-10-12-12-|15-15-15-15-15-15-15-15-14-14-14-14-17------|

N.H.
e|<11>---<11>-------------------------|
b|<11>---<11>----<9>------------------|
g|<11>---<11>----<9>------------------|
D|---------------<9>------------------|
A|------------------------------------|
D|------------------------------------|

chorus

outro
e|--------------------------------|--------------------------------|
b|--------------------------------|--------------------------------|
g|--------------------------------|--------------------------------|
D|--------------------------------|--------------------------------|
A|77777777555555554444444433335555|7777777755555555444444443\------|
D|77777777555555554444444433335555|7777777755555555444444443\------|
Tap to rate this tab
# A B C D E F G H I J K L M N O P Q R S T U V W X Y Z