Song name
# A B C D E F G H I J K L M N O P Q R S T U V W X Y Z

Halestorm - Mz Hyde tab

Halestorm
Hz. Hyde
Drop D tuning

Tabbed by:
michele.zannoni of UltimateGuitar

h = hammer on
v = vibrato
/s/ = slide

Intro
(0:14)
e|-----------|-----|----------------------------------|
b|-----------|-----|----------------------------------|
g|-----------|-----|----------------------------------|
D|-----------|-----|----------------------------------|
A|0-0-0h5h3--|-----|-88-7-----------------------------|
D|0-0-0h5h3--|[x3]-|-88-7-----------------------------|

(0:17)
e|-----------|-----|----------------------------------|
b|-----------|-----|----------------------------------|
g|-----------|-----|----------------------------------|
D|-----------|-----|----------------------------------|
A|0-0-0h5h3--|-----|----------------------------------|
D|0-0-0h5h3--|[x3]-|-0h3h5/s/6/s/7v-------------------|

Verse
(0:21)
e|--------------------------------------------------|
b|--------------------------------------------------|
g|--------------------------------------------------|
D|--------------------------------------------------|
A|00-033-388-877-700--------------------------------|
D|00-033-388-877-700--------------------------------|

(0:25)
e|--------------------------------------------------|
b|--------------------------------------------------|
g|--------------------------------------------------|
D|--------------------------------------------------|
A|00-033-388-873------------------------------------|
D|00-033-388-873------------------------------------|

Pre-Chorus Part A (slowly tremelo pick these)
(0:41)
e|--------------------------------------------------|
b|--------------------------------------------------|
g|--------------------------------------------------|
D|--------------------------------------------------|
A|--------------------------------------------------|
D|000000-333333-222222-111111-----------------------|

Pre-Chorus Part B
(0:48)
e|--------------------------------------------------|
b|--------------------------------------------------|
g|--------------------------------------------------|
D|--------------------------------------------------|
A|88888888-7----------------------------------------|
D|88888888-7----------------------------------------|

Chorus
(0:52)
e|--------------------------------------------------|
b|--------------------------------------------------|
g|--------------------------------------------------|
D|--------------------------------------------------|
A|0000-3333-8888-7777-0000-3333-8-5-7-3-------------|
D|0000-3333-8888-7777-0000-3333-8-5-7-3-------------|

Play Pre-Chorus Part B
Play Intro
Back to Verse

(1:58)
e|--------------------------------------------------|
b|--------------------------------------------------|
g|--------------------------------------------------|
D|--------------------------------------------------|
A|88888888-77777777---------------------------------|
D|88888888-77777777---------------------------------|

Interlude
(2:01)
e|------------------------|-----|--------------------|
b|------------------------|-----|--------------------|
g|--7-----7-----7-----7---|-----|--------------------|
D|-7-7---7-7---7-7---7-7--|-----|--------------------|
A|5-----4-----3-----2-----|-----|-8-8-8-8-7----------|
D|------------------------|[x4]-|-8-8-8-8-7----------|

Play Chorus [x4]
(3:04) Play Pre-Chorus Part B
(3:08) Play Intro
Tap to rate this tab
 
# A B C D E F G H I J K L M N O P Q R S T U V W X Y Z