Song name
# A B C D E F G H I J K L M N O P Q R S T U V W X Y Z

Halestorm - You Call Me A Bitch Like Its A Bad Thing tab

Intro/Main Riff/Verse (only play guitar 1 and palm mute for verse)
Guitar 1
E|---------------------------------------------------------------|
B|---------------------------------------------------------------|
G|---------------------------------------------------------------|
D|---66-33-55-66-000-------------0-3/5-6-0-------------0-3/5-6-0-|
A|-5-66-33-55-66-000-------------0-3/5-6-0-------------0-3/5-6-0-|
D|---66-33-55-66-000-------------0-3/5-6-0-------------0-3/5-6-0-|

Guitar 2
E|---------------------------------------------------------------|
B|---------------------------------------------------------------|
G|---------------------------------------------------------------|
D|---66-33-55-66-000---------------------------------------------|
A|-5-66-33-55-66-000---------------------------------------------|
D|---66-33-55-66-000-ph0-ph3-ph5-----------ph0-ph3-ph5-----------|

Pre-Chorus
Guitar 1
E|---------------------------------------------------------------|
B|---------------------------------------------------------------|
G|-88888888-88888888---------------------------------------------|
D|-88888888-88888888-------------0-3/5-6-0-------------0-3/5-6-0-|
A|-66666666-66666666-------------0-3/5-6-0-------------0-3/5-6-0-|
D|-------------------------------0-3/5-6-0-------------0-3/5-6-0-|

E|------------------------------|---|
B|------------------------------|---|
G|-88888888-88888888------------|---|
D|-88888888-88888888-7777777777-|---|
A|-66666666-66666666-7777777777-|---|
D|-------------------7777777777-|---|

Guitar 2
E|---------------------------------------------------------------|
B|---------------------------------------------------------------|
G|-88888888-88888888---------------------------------------------|
D|-88888888-88888888---------------------------------------------|
A|-66666666-66666666---------------------------------------------|
D|-------------------ph0-ph3-ph5-----------ph0-ph3-ph5-----------|

E|------------------------------|-------|
B|------------------------------|-13----|
G|-88888888-88888888------------|-15b17-|
D|-88888888-88888888-7777777777-|-------|
A|-66666666-66666666-7777777777-|-------|
D|-------------------7777777777-|-------|

Chorus
Guitar 1+2
E|--------------------------------------|
B|--------------------------------------|
G|----------33333333-----------33332222-|
D|-00000000-33333333-3333333---33332222-|
A|-00000000-11111111-3333333-0-11110000-|
D|-00000000----------3333333------------|

E|--------------------------------------|
B|--------------------------------------|
G|----------33333333--------------------|
D|-00000000-33333333-33333333-5555-7777-|
A|-00000000-11111111-33333333-5555-7777-|
D|-00000000----------33333333-5555-7777-|

E|-------------------------------|
B|-------------------------------|
G|-------------------------------|
D|-333-00-22-00~00~-333-00-22-00~|
A|-333-00-22-00~00~-333-00-22-00~|
D|-333-00-22-00~00~-333-00-22-00~|

Guitar 2 mini solo (Guitar 1 plays main riff behind)
E|----------------------------------------------------|
B|-13b15-13b15-13b15-13b15-13b15-13b15-r13------------|
G|-----------------------------------------12b14-ph17~|
D|----------------------------------------------------|
A|----------------------------------------------------|
D|----------------------------------------------------|

play verse, pre-chorus and chorus again 

Bridge Guitar 1+2
E|--------------------------------------|
B|--------------------------------------|
G|-44444444----------77777777-2222-3333-|
D|-44444444-55555555-77777777-2222-3333-|
A|-22222222-55555555-55555555-0000-1111-|
D|----------55555555--------------------|

E|-------------------------------------------------------|
B|-------------------------------------------------------|
G|-44444444----------------------------------------------|
D|-44444444-55555555-22222222-44444444-55555555-77777777-|
A|-22222222-55555555-22222222-44444444-55555555-77777777-|
D|----------55555555-22222222-44444444-55555555-77777777-|

Outro Chorus
E|-----------)-------|--------------------|
B|----------T--------|--------------------|
G|---------S---------|-----------33332222-|
D|--------E----------|-3333333---33332222-|
A|-------R-----------|-3333333-0-11110000-|
D|------(------------|-3333333------------|

E|--------------------------------------|
B|--------------------------------------|
G|----------33333333--------------------|
D|-00000000-33333333-33333333-5555-7777-|
A|-00000000-11111111-33333333-5555-7777-|
D|-00000000----------33333333-5555-7777-|

E|-------------------------------|
B|-------------------------------|
G|-------------------------------|
D|-333-00-22-00~00~-333-00-22-00~|
A|-333-00-22-00~00~-333-00-22-00~|
D|-333-00-22-00~00~-333-00-22-00~|

Outro Solo
E|-----------------------------------------------|
B|-13b15-13b15-13b15~------------------ph13~-----|
G|-------------------12b14-12b14-12b14~-------10~|
D|-----------------------------------------------|
A|-----------------------------------------------|
D|-----------------------------------------------|

E|------------------------------------------------------------------------|
B|-13b15-13b15-13b15~-15b17-15b17-15b17~-17b19~-19b21-21b23-21b23-21b23//-|
G|------------------------------------------------------------------------|
D|------------------------------------------------------------------------|
A|------------------------------------------------------------------------|
D|------------------------------------------------------------------------|


ph = Pinch Harmonic
/  = Slide
// = Slide Down Neck
b  = bend
~  = Vibrato
r  = Release
Tap to rate this tab
# A B C D E F G H I J K L M N O P Q R S T U V W X Y Z