Song name
# A B C D E F G H I J K L M N O P Q R S T U V W X Y Z

Half Man Half Biscuit - Paintballs Coming Home tab

-------------------------------------------------------------------------------
			     Paintball's Coming Home - Half Man Half Biscuit
-------------------------------------------------------------------------------
Tabbed by: Joe
Email: FX778@hotmail.co.uk

Tuning: Standard

Intro/Middle/Outro
                                      B7
e|----5-----5-----4-----4-----3--------2-----------|
B|----0-----0-----0-----0-----0--------0-----------|
G|----5-----5-----4-----4-----3--------2-----------|
D|-4-----4-----3-----3-----2-----2-----1-----------|
A|-5-----5-----4-----4-----3-----3-----2-----------|
E|-------------------------------------------------|

Main
                 E
They've Got the whole world
In their house
                 B7
They've got the whole wide world
In their house
                 E
They've got the whole world
In their house
            B7           E
To see the new conservatory
Tap to rate this tab
# A B C D E F G H I J K L M N O P Q R S T U V W X Y Z