Song name
# A B C D E F G H I J K L M N O P Q R S T U V W X Y Z

Half Man Half Biscuit - Lenfer Cest Les Autres chords

Highlighted       Show chord diagrams
LEnfer CEst Les Autres by Half Man Half Biscuit


Intro and main parts of verse:

    C   F   D7  G7
|---3---1---2---1---|
|---1---1---1---0---|
|---0---2---2---0---|
|---2---3---0---0---|
|---3---3---0---2---|
|-------1-------3---|


Bridge parts:

    E   F   C#7 G7
|---0---1---4---3---|
|---0---1---6---3---|
|---1---2---4---4---|
|---2---3---6---3---|
|---2---3---4---5---|
|---0---1-------3---|

And that is all you need!
The C sounds more correct with the 1st string fretted, but it still sounds ok if 
left open and is a whole lot easier!
Tap to rate this tab
# A B C D E F G H I J K L M N O P Q R S T U V W X Y Z