Song name
# A B C D E F G H I J K L M N O P Q R S T U V W X Y Z

Half Man Half Biscuit - National Shite Day tab

National Shite Day



Intro and verse

    D  Am   C   F
|---2---0---0---1---|
|---3---1---1---1---|
|---2---2---0---2---|
|---0---2---2---3---|
|---0---0---3---3---|
|---------------1---|


Intro riff

|----------------------4-------------|
|---3---3-3-54------6-----6--5-------|
|--------------5----------------5\---|
|------------------------------------|
|------------------------------------|
|------------------------------------|

|----------------------4-------------|
|--/3---3-3-54------6-----6--5-------|
|--------------5----------------5\---|
|------------------------------------|
|------------------------------------|
|------------------------------------| 2x

|---------------------------------------|
|--/3---3-3-54-----5-6b(7)--565---------|
|--------------5-----------------5\-2---|
|---------------------------------------|
|---------------------------------------|
|---------------------------------------|


Bridge

    E
|---0---|
|---0---|
|---1---|
|---2---|
|---2---|
|---0---|


Chorus

    A   Bb  E
|---0-------0---|
|---2---3---0---|
|---2---3---1---|
|---2---3---2---|
|---0---1---2---|
|-----------0---|


Outro riff
|----------------------------------------|
|---3-2-3-4-5------5-9--8--7\--1-2-3-4---|
|-------------5--------------------------|
|----------------------------------------|
|----------------------------------------|
|----------------------------------------|


Not 100% sure of the Bb chord in the chorus, but it is the most accurate I can come up 
with. That said, the I IV bV thing fits with the general wonkiness of the song so could 
well be right! That and any other corrections welcomed...
Tap to rate this tab
 
# A B C D E F G H I J K L M N O P Q R S T U V W X Y Z