Song name
# A B C D E F G H I J K L M N O P Q R S T U V W X Y Z

Half Moon Run - Call Me In The Afternoon tab

Capo on the sixth fret.
The tab is relative to the capo.
The rhythm is simple enough to work out by listening to the song.

Intro/Verses

e|-------------------------------|
B|----0-----0-----0-------0h1p0--|
G|--0-----0-----0-----0---------0| Repeat
D|2-----0------------------------|   x7
A|------------3------------------|
E|-------------------------------|

e|--------------------3----------|
B|----0-----0-----0-------0h1p0--|
G|--0-----0-----0---------------0| 
D|2-----0------------------------|   
A|------------3------------------|
E|-------------------------------|

For the part where it says, "Call me in the afternoon.."

e|-------------------------------|
B|----0-----0-----0-------0h1p0--|
G|--0-----0-----0-----0---------0| 
D|2-----0------------------------|   
A|------------3------------------|
E|-------------------------------|

e|--------------------3----------|
B|----0-----0-----0-------0h1p0--|
G|--0-----0-----0---------------0| 
D|2-----0------------------------|   
A|------------3------------------|
E|-------------------------------|

I hope this helps a bit.
Tap to rate this tab
# A B C D E F G H I J K L M N O P Q R S T U V W X Y Z