Song name
# A B C D E F G H I J K L M N O P Q R S T U V W X Y Z

Half Moon Run - Full Cirlce tab

A#maj7:  X13230
Am:      X02210
G:       3X0330
Dsus2:   XX0230
Dm:      XX0231
Fmaj7:   XX3210 
C:       X32010



Verse                         Chorus (and bridge)
 A#maj7  Am     G    Dsus2     Dm     Fmaj7  C
|-0------0------0------0----| |----1------0------0-|
|-3------1------3------3----| |----3------1------1-|
|-2------2------3------2----| |----2------2------0-|
|-3------2------0------0----| |----0------3------2-|
|-1------0------x------x----| |------------------3-|
|---------------3------x----| |--------------------|

The intro is something like this:

|---------0---------|       
|------3-----3------|
|---2-----------2---|
|--3--3--3--3----3--| 3x + 
|-1--1--1--1---1----|
|-------------------|

(verse strumming has about the same pattern)


|-------0-----------|
|------3--3---------|
|---2-------2--3----| 1x
|--3----------2--2--|
|-1--1-----1----1---|
|-------------------|




The chorus strumming goes something like this:

   Dm                  Fmaj7               C                    C
|-------1-------1------------0-------0---------------0---------------------0----------| 
|---3-------3-------3----1-------1------1--------1-------1------------1-------1-------|
|--2---2---2---2-----2--2---2---2---2----2---0---------------0----0---------------0---|
|-0---0---0---0----0---3---3---3---3---3----2---2---2---2-----2--2---2---2---2-----2--|
|------------------------------------------3---3---3---3----3---3---3---3---3----3----|
|-------------------------------------------------------------------------------------|
And I watch     your head       turn full  circle

Check the song in case you don't quite remeber the rythm.

Verse:
A#maj7
Cap off kneeling at the back of the church, 
        Am
Feeling water on your brow, if it's healing it hurts 
   G
At first a sharpish pain that returns as a thought 
         Dsus2
That the needle in your skin will bring you closer to god 

Chorus:
     Dm             Fmaj7           C
And I watch as your head turns full circle 


A#maj7
Our hope was with a coffee and a medical text 
         Am
It's too easy knowin' nothing blowing off the rest 
        G
And the riddles in the pages leave at too much to guess 
        Dsus2
And the worry cracks a fracture from your hip to your chest 


     Dm            Fmaj7           C
As I watch as your head turns full circle 


A#maj7
We got lost in the travels in the spiritual book 
           Am
Missed the beaches from nirvana and the way that they look 
        G
And the crooks they're on the island they're killin' to keep runnin' 
                Dsus2
They're running severance on the plastic and it seems to be working 


            Dm        Fmaj7 C       
Is that the best that I can do? 
     Dm            Fmaj7           C
As I watch as your head turns full circle 


Bridge : Dm   Fmaj7   C (2x)

      Amaj7
You appear even tempered though your looks will deceive 
        Am
And the sparks are always flying cause you drink for relief 
         G
With the heart of a child and the wit of a fool 
         Dsus2       
It's a wonder why I donít try to build a wall around you 



       Dm            Fmaj7           C
When I watch as your head turns full circle 
      Dm            Fmaj7           C
And I watch as your head turns full circle 
       Dm            Fmaj7           C
Yeah I watch as your head turns full circle



End
Tap to rate this tab
# A B C D E F G H I J K L M N O P Q R S T U V W X Y Z