Halford - We Own The Night tab

-----------------------------------------------------------------------------
WE OWN THE NIGHT - Halford
-----------------------------------------------------------------------------
Tabbed by: Kyle
Email: kylecasey1@hotmail.com

Tuning: Standard



e|---------------------------------------------------------------------------|
B|---------------------------------------------------------------------------|
G|-2/4-4-4-4---2/4-4-4---2-4-4-4-4----------7-7-7----------------------------|
D|-2/4-4-4-4---2/4-4-4---2-4-4-4-4---5-5-5--7-7-7----------------------------|
A|-0/2-2-2-2---0/2-2-2---0-2-2-2-2---5-5-5--5-5-5----------------------------|
E|-----------------------------------3-3-3-----------------------------------|



************************************

| /   slide up
| \   slide down
| h   hammer-on
| p   pull-off
| ~   vibrato
| +   harmonic
| x   Mute note
| b   Bend
| pb  Pre-bend
| br  Bend release
| pbr Pre-bend release
| brb Bend release bend

************************************
Tap to rate this tab
 
# A B C D E F G H I J K L M N O P Q R S T U V W X Y Z