Guitaretab - guitar tabs
Song name
# A B C D E F G H I J K L M N O P Q R S T U V W X Y Z

Halford - Wrath Of God tab

Tab By : Dazz Doom

key:
    0 = open strings
    h = hamer on
    * = let strings ring

de-tune your strings to this tuning or these riffs wont work for you

tuning: CGCF#AB

mostly straight forward riffs not to hard or tho it has a up beat tempo but makes it sound more raw
 
        Start       main riff verse
B ||-----------|-----------------------------------------------------|
A ||-----------|-----------------------------------------------------|
F#||-----------|-----------------------------------------------------|
C ||-----7-----|-------------------7---8---7------------7---5---7----|
G ||-----7-----|-------------------7---8---7------------7---5---7----|
C ||-----7-----|-----777777777777--7---8---7--77777777--7---5---7----|

B ||------------------------------------------------------|
A ||------------------------------------------------------|
F#||------------------------------------------------------|
C ||---------------7---8---7------------7---5---7---8-----|
G ||---------------7---8---7------------7---5---7---8-----|
C ||--777777777777-7---8---7--77777777--7---5---7---8-----|

[ Tab from: http://www.guitaretab.com/h/halford/46790.html ]
        chorus
B ||--------------------------------|            |--------------------------|
A ||--------------------------------|            |--------------------------|
F#||--------------------------------|     or     |--------------------------|
C ||-----0-*----5-*----0-*----1-*---|            |---0*---5*---3*---1*------|
G ||-----0-*----5-*----0-*----1-*---|            |---0*---5*---3*---1*------|
C ||-----0-*----5-*----0-*----1-*---|            |---0*---5*---3*---1*------|

i use the first one myself but you can choose witch one works best for you



       bridge before solo STart
B ||----------------------------------------------|
A ||----------------------------------------------|
F#||----------------------------------------------|
C ||----------------------------------------1*----|
G ||----------------------------------------1*----|
C ||----0h1-0--0-1-0--1-3-1--0h1-0--0-1-0---1*----|

      play rest like this
B ||------------------------------------------------------------------|
A ||------------------------------------------------------------------|
F#||------------------------------------------------------------------|
C ||----0h1-0--0-1-0--1-3-1--0h1-0--0-1-0--1-3-1--0h1-0--0-1-0--1*----|
G ||----0h1-0--0-1-0--1-3-1--0h1-0--0-1-0--1-3-1--0h1-0--0-1-0--1*----|
C ||----0h1-0--0-1-0--1-3-1--0h1-0--0-1-0--1-3-1--0h1-0--0-1-0--1*----|

still working on the leed for this tab so bare with me 
Related for Wrath Of God tab
Wrath Of God chords by Halford