Guitaretab - guitar tabs
Song name
# A B C D E F G H I J K L M N O P Q R S T U V W X Y Z

Halford - Nailed To The Gun tab

Riff 1
||--------------------------------------------------|
||--------------------------------------------------|
||----------------------------------------3-3--5-5--|
||-5-----5/6----5-----4\5----5-----5/6----3-3--5-5--|
||-3p0-0-3/4----3p0-0-6\3----3p0-0-3/4--------------|
||--------------------------------------------------|

Riff 2
|-----------------------------|
|-----------------------------|
|-----------------------------|
|-----------------------------|
|-5-5-5-2---------------------|
|-3-3-3-0-0-0-0-0-0-0-0-0-0-0-|
[ Tab from: http://www.guitaretab.com/h/halford/46791.html ]
Riff 3
|----------------------------------------------------------------------
|----------------------------------------------------------------------
|-7------5------2---------5-----------------------7------5------2------
|-7------5------2---------5------5------7---------7------5------2------
|-5------3------0---------3------5------7---------5------3------0------
|--------------------------------3------5------------------------------

--------------------------------------------|
--------------------------------------------|
----5---------------------------------------|
----5------5--------------------------------|
----3------5------2-2-2-2-2-2-2-2-2-2-2-2-2-|
-----------3------0-0-0-0-0-0-0-0-0-0-0-0-0-|

Riff 4
|------------------||
|------------------||
|------------------||
|---------------2--||
|-5-5-5-2-------0--||
|-3-3-3-0----------||


Order of the song:

Riff 1
Riff 2
Riff 1
Riff 2
Riff 3
Solo
Solo backing-riff 1
Riff 3
Riff 1
Riff 2 (7xs)
Riff 4

Listen to the song also!
Related for Nailed To The Gun tab