Song name
# A B C D E F G H I J K L M N O P Q R S T U V W X Y Z

Halfway To Gone - Devil Spit tab

the rythm probanly isn't right but the fret numbers are. Just listen to the song if u get stuck

e----------------------------------|
b----------------------------------|
g----------------------------------|
d---3-4-5-5-5-5-5-5-5-5-5-5-5-5-5--|
a---3-4-5-5-5-5-5-5-5-5-5-5-5-5-5--|
d---3-4-5-5-5-5-5-5-5-5-5-5-5-5-5--|

play the first bit twice

e------------------|
b------------------|
g------------------|
d---8-10--8-10-8---|
a---8-10--8-10-8---|
d---8-10--8-10-8---|

play the 2nd bit again + then:

e-----------------------------|
b-----------------------------|
g-----------------------------|
d---3-5--3-5-3---0-3--0-3-0---|
a---3-5--3-5-3---0-3--0-3-0---|
d---3-5--3-5-3---0-3--0-3-0---|

i haven't got the solo but it's basically this most of the way through.
See ya!!!
Tap to rate this tab
# A B C D E F G H I J K L M N O P Q R S T U V W X Y Z