Song name
# A B C D E F G H I J K L M N O P Q R S T U V W X Y Z

Halfway Under Water - Its Hard tab

Halfway Under Water- Its Hard.
Tabbed by Keith Mitchell, Pinetree_000@hotmail.com.
  
Play Three times 



e:---------------------------------------------------------------------------------
B:---------------------------------------------------------------------------------
G:-------------4-4-4-4-x-x-6-6-6-6-x-x---------------------------------------------
D:-6-6-6-6-x-x-4-4-4-4-x-x-6-6-6-6-x-x-4-4-3-3-------------------------------------
A:-6-6-6-6-x-x-2-2-2-2-x-x-4-4-4-4-x-x-4-4-3-3-------------------------------------
E:-4-4-4-4-x-x-------------------------2-2-1-1-------------------------------------

On fourth play    
e:---------------------------------------------------------------------------------
B:---------------------------------------------------------------------------------
G:-------------4-4-4-4-x-x-6-6-6-6-x-x---------------------------------------------
D:-6-6-6-6-x-x-4-4-4-4-x-x-6-6-6-6-x-x-3-3-4-4-------------------------------------
A:-6-6-6-6-x-x-2-2-2-2-x-x-4-4-4-4-x-x-3-3-4-4-------------------------------------
E:-4-4-4-4-x-x-------------------------1-1-2-2------------------- Play Both those 8 times

Chorus:
e:---------------------------------------------------------------------------------
B:---------------------------------------------------------------------------------
G:---------------------4-4-4-4-4-4-4-4-x-x-6-6-6-6-6-6-6-6-x-x---------------------
D:-6-6-6-6-6-6-6-6-x-x-4-4-4-4-4-4-4-4-x-x-6-6-6-6-6-6-6-6-x-x-4-4-4-4-4-4-4-4-----
A:-6-6-6-6-6-6-6-6-x-x-2-2-2-2-2-2-2-2-x-x-4-4-4-4-4-4-4-4-x-x-4-4-4-4-4-4-4-4-----
E:-4-4-4-4-4-4-4-4-x-x-----------------------------------------2-2-2-2-2-2-2-2-----Play times 8


Play all that through 4 Times 
:: Ultimate Guitar Archive :: 
http://www.ultimate-guitar.com 



Tap to rate this tab
 
# A B C D E F G H I J K L M N O P Q R S T U V W X Y Z