Guitaretab - guitar tabs
Song name
# A B C D E F G H I J K L M N O P Q R S T U V W X Y Z

Halifax - Such A Terrible Trend tab

------------------------------------------------------------------------------
              Such A Terrible Trend - Halifax
-------------------------------------------------------------------------------
Tabbed by: Andres "silvadolla" Ali
Email: andres.ali@gmail.com

Tuning: EADGBe (STANDARD)

Wow, this band is awesome. Anyway, this song has a really addictive opening
riff, so I had to learn the song. There weren't any full tabs, so I gave it a shot.
Enjoy!


Intro:
e|---------------------------------------------------------------------------|
B|---------------------------------------------------------------------------|
G|-7-9-11-14v----7-9-11-16v---7-9-11-16--------16--------14-11-9/7-----------|
D|--------------------------------------16p14-----16p14----------------------|
A|---------------------------------------------------------------------------|
E|---------------------------------------------------------------------------|

Verse:
e|---------------------------------------------------------------------------|
B|---------------------------------------------------------------------------|
G|---------------------------------------------------------------------------|
D|--7-7-7-7---8-8-8-8-----4-4-4-4---2-2-2-2----------------------------------|
A|--5-5-5-5---5-5-5-5-----2-2-2-2---0-0-0-0----------------------------------|x2
E|---------------------------------------------------------------------------|

e|---------------------------------------------------------------------------|
B|---------------------------------------------------------------------------|
G|---------------------------------------------------------------------------|
D|--7-7-7-7--7-7-7-7-77---8-8-8-8--8-8-8-8--88--4-4-4-4--4-4-4-4--44---------|
A|--5-5-5-5--5-5-5-5-55---5-5-5-5--5-5-5-5--55--2-2-2-2--2-2-2-2--22---------|
E|---------------------------------------------------------------------------|

e|---------------------------------------------------------------------------|
B|---------------------------------------------------------------------------|
G|---------------------------------------------------------------------------|
D|-2-2-2-2-2-2-2-2--2-2-2-2-2-2-2-2------------------------------------------|
A|-0-0-0-0-0-0-0-0--0-0-0-0-0-0-0-0------------------------------------------|
E|---------------------------------------------------------------------------|

Chorus:
e|---------------------------------------------------------------------------|
B|---------------------------------------------------------------------------|
G|-7-9-11-14----7-9-11-16----7-9-11-16--------16--------14-11-9/7------------|
D|--------------------------------------16p14-----16p14----------------------|
A|---------------------------------------------------------------------------|x2
E|---------------------------------------------------------------------------|

Verse:
e|---------------------------------------------------------------------------|
B|---------------------------------------------------------------------------|
G|---------------------------------------------------------------------------|
D|--7-7-7-7---8-8-8-8-----4-4-4-4---2-2-2-2----------------------------------|
A|--5-5-5-5---5-5-5-5-----2-2-2-2---0-0-0-0----------------------------------|x2
E|---------------------------------------------------------------------------|
[ Tab from: http://www.guitaretab.com/h/halifax/81107.html ]
e|---------------------------------------------------------------------------|
B|---------------------------------------------------------------------------|
G|---------------------------------------------------------------------------|
D|--7-7-7-7--7-7-7-7-77---8-8-8-8--8-8-8-8--88--4-4-4-4--4-4-4-4--44---------|
A|--5-5-5-5--5-5-5-5-55---5-5-5-5--5-5-5-5--55--2-2-2-2--2-2-2-2--22---------|
E|---------------------------------------------------------------------------|

e|---------------------------------------------------------------------------|
B|---------------------------------------------------------------------------|
G|---------------------------------------------------------------------------|
D|-2-2-2-2-2-2-2-2--2-2-2-2-2-2-2-2------------------------------------------|
A|-0-0-0-0-0-0-0-0--0-0-0-0-0-0-0-0------------------------------------------|
E|---------------------------------------------------------------------------|

Chorus:
e|---------------------------------------------------------------------------|
B|---------------------------------------------------------------------------|
G|-7-9-11-14----7-9-11-16----7-9-11-16--------16--------14-11-9/7------------|
D|--------------------------------------16p14-----16p14----------------------|
A|---------------------------------------------------------------------------|x2
E|---------------------------------------------------------------------------|


I play this where the piano comes in(it harmonizes):
e|-2---2---2---2---2---2---2---2---------------------------------------------|
B|-3---3---3---3---3---3---3---3-----2---2---2---2---2---2---2---2-----------|
G|-2---2---2---2---2---2---2---2-----2---2---2---2---2---2---2---2-----------|
D|---0---0---0---0---0---0---0---0-----0---0---0---0---0---0---0---0---------|
A|---------------------------------------------------------------------------|x2 
E|---------------------------------------------------------------------------|


e|---------------------------------------------------------------------------|
B|---------------------------------------------------------------------------|
G|---------------------------------------------------------------------------|
D|-7-7-7-7-7-7-7-7--7-7-7-7-7-7-7-7--4-4-4-4-4-4-4-4--2-2-2-2-2-2-2-2--------|
A|-5-5-5-5-5-5-5-5--5-5-5-5-5-5-5-5--2-2-2-2-2-2-2-2--0-0-0-0-0-0-0-0--------|
E|---------------------------------------------------------------------------|x2

e|---------------------------------------------------------------------------|
B|---------------------------------------------------------------------------|
G|---------------------------------------------------------------------------|
D|--7-7-7-7-7-7-7-7--7-7-7-7-7-7-7-7-----------------------------------------|
A|--5-5-5-5-5-5-5-5--5-5-5-5-5-5-5-5-----------------------------------------|
E|---------------------------------------------------------------------------|

Chorus:
e|---------------------------------------------------------------------------|
B|---------------------------------------------------------------------------|
G|-7-9-11-14----7-9-11-16----7-9-11-16--------16--------14-11-9/7------------|
D|--------------------------------------16p14-----16p14----------------------|
A|---------------------------------------------------------------------------|x4
E|---------------------------------------------------------------------------|


e|---------------------------------------------------------------------------|
B|---------------------------------------------------------------------------|
G|---------------------------------------------------------------------------|
D|--7-7-7-7---8-8-8-8--------------------------------------------------------|
A|--5-5-5-5---5-5-5-5---7----------------------------------------------------|
E|----------------------5----------------------------------------------------|



| /  slide up
| \  slide down
| h  hammer-on
| p  pull-off
| ~  vibrato
| +  harmonic
| x  Mute note
===============================================================================
Related for Such A Terrible Trend tab