Song name
# A B C D E F G H I J K L M N O P Q R S T U V W X Y Z

Hall And Oates - Sara Smile tab

First tab! Please comment!

Sara Smile
Hall And Oates
Standard tuning

intro

e------------------------13-----------------------------------------------------|
B-13b------------11b---------------13b-13b--------------------------------------|
G-----12b--10--------11/13------------------12b-10h12p10h12p10----10h12p10------|
D-------------12---------------------------------------------12-----------------|
A-------------------------------------------------------------------------------|
E-------------------------------------------------------------------------------|

e-----------------10/13-13/17-----------------------------------------------|
B---11---11/13--------------------------------------------------------------|
G-10---10-------------------------------------------------------------------|
D---------------------------------------------------------------------------|
A---------------------------------------------------------------------------|
E---------------------------------------------------------------------------|
Tap to rate this tab
# A B C D E F G H I J K L M N O P Q R S T U V W X Y Z