Song name
# A B C D E F G H I J K L M N O P Q R S T U V W X Y Z

Hall And Oates - One On One chords

Highlighted       Show chord diagrams
One on One
Hall & Oates
Capo 3

Intro
Amaj7    Esus4 (4x)   

Bm7        

C5                        Bm7                                       
I'm tired of playing on the team...
C5                                  Bm7 E
Ooooh, it seems I don't get time out anymore
C5                        Bm7                                
What a change if we set the pace face to face
C5                     Bm7 E
No one even trying to score

C5                                      Bm7                                       
And oh, oh, I can feel the magic of your touch...
C5                           Bm7 E
Umm-humm, And when you move in close
C5                        Bm7                            
A little bit means so much...And ooh yeah, you've got to understand, baby....
C5                    Bm7 E
Time out is what I'm here for... 

Chorus
       A                     Amaj7
Whoooa, one on one...I wanna play that game tonight
Amaj6        Amaj7
One on one I know
                  A                    Amaj7
I wanna play that one on one...I wanna play that game tonight
Amaj6         Amaj7              Bm7  
One on one so slow...Ooooooh-oh


C5                                  Bm7       
Oooooh, you can't tell me you don't miss me girl...
C5                            Bm7 E
I think I might know you too well, whooooa
C5                            Bm7       
I (wonder what) you'd say if you knew...
                                    
C5                                                 Bm7 E
That I was coming tonight....(Want to)...I want you can't you tell

CHORUS

(Solo Interlude)
C5   Amaj7 (x 3)
                 Bm7                  C5   Bm7  
'Cause if it's really right...There's nothing 

A        Esus4 (x 2)
else


Chorus and fade......

(Capo 3)

Amaj7
e|----------|
B|-----2----|
G|--1-------|
D|-----2----|
A|----------|
E|----------|

Esus4
e|----------|
B|-------=--|
G|----2-----|
D|----2-=---|
A|----2-----|
E|----------|

C5
e|----------|
B|----------|
G|-------5--|
D|-------5--|
A|----------|
E|----------|

Bm7
e|---2------|
B|-----3----|
G|---2------|
D|-------4--|
A|----------|
E|----X-----|

E
e|----------|
B|----------|
G|--1-------|
D|-----2----|
A|-----2----|
E|----------|


A
e|----------|
B|----------|
G|-----2----|
D|-----2----|
A|-----2----|
E|----------|

Amaj6
e|-----2----|
B|-----2----|
G|-----2----|
D|-----2----|
A|----------|
E|----------|
Tap to rate this tab
# A B C D E F G H I J K L M N O P Q R S T U V W X Y Z