Song name
# A B C D E F G H I J K L M N O P Q R S T U V W X Y Z

Hall And Oates - Sara Smile tab

e|-----------------------------13-------------------------------------------|
B|--b13----------------b11-10-------b13-------------------------------------|
G|------b12---10-------------------------b10--10p12--10p12--10p12------b10--|
D|----------------12-----------------------------------------------12-------|
A|--------------------------------------------------------------------------|
E|--------------------------------------------------------------------------|


e|----------------------------------13/17----------------------------------|
B|------11-----------13~---13--18------------------------------------------|
G|--10-------12/14---------------------------------------------------------|
D|-------------------------------------------------------------------------|
A|-------------------------------------------------------------------------|
E|-------------------------------------------------------------------------|
Tap to rate this tab
# A B C D E F G H I J K L M N O P Q R S T U V W X Y Z