Song name
# A B C D E F G H I J K L M N O P Q R S T U V W X Y Z

Hallo Venray - Weirdo tab

-------------------------------------------------------------------------------
			     Weirdo - Hallo Venray
-------------------------------------------------------------------------------
Tabbed by:Vincent
Email:v_oude_lansink@hotmail.com


Tuning:normal

e|------------------------------------------------------------------------|
B|----3----------3------------5-------------------------------------------|
G|--3---------2------------5----------------------------------------------|
D|------------------------------------------------------------------------|
A|-(1)--------------------(3)---------------------------------------------|
E|-----------(1)----------------------------------------------------------|

Almost the whole song is this riff, but sometimes Henk plays more high tones, but you 
listen and hear that.

Only in the 'chorus' he plays this one time
e ----------------------------------------------------------------------------|
B|----3---3---3---3---3---3---3---3---3------3------3------3------------------|
G|--3---3---3---3---2---2---2---2-----0--0------0------0----------------------|
D|------------------------------------0---------------------------------------|
A|-(1)------------------------------------------------------------------------|
E|------------------(1)--------------(3)--------------------------------------|
    'One day you know him better'
Tap to rate this tab
 
# A B C D E F G H I J K L M N O P Q R S T U V W X Y Z