Song name
# A B C D E F G H I J K L M N O P Q R S T U V W X Y Z

Hallows Eve - Plunging To Megadeath tab

Notation Key
v: vibrato
t: tremolo bar
^: bend
.: palm mute
~: trill
p: pull-off
h: hammer-on
x: ghost note
/: slide up
\: slide down

------------------------------------------------------------------------

Fig. 1 x1
e|-------|---------|---------|---------|---------|-----|
B|-------|---------|---------|---------|---------|-----|
G|-------|---------|---------|---------|---------|-----|
D|--2-2--|--x-2-2--|--x-2-2--|--x-2-2--|--x-2-2--|--2--|
A|--2-2--|--x-2-2--|--x-2-2--|--x-2-2--|--x-2-2--|--2--|
E|--0-0--|--x-0-0--|--x-0-0--|--x-0-0--|--x-0-0--|--0--|

Riff 1 x4
e|------------------------------|------------------------------|
B|------------------------------|------------------------------|
G|------------------------------|------------------------------|
D|------------------------------|------------------------------|
A|------------------------------|------------------------------|
E|--000000000000-111111-331111--|--000000000000-111111-331133--|

Riff 2 x3
e|----------------------------|
B|----------------------------|
G|----------------------------|
D|----------------------3--3--|
A|----------------------3--3--|
E|--000000000000000310--1--1--|

Fill 1 x1
e|-------------------------|-----|
B|-------------------------|-----|
G|-------------------------|--4--|
D|----------------------3--|--4--|
A|----------------------3--|--2--|
E|--000000000000000310--1--|-----|

Repeat Riff 1 x4

Fig. 1 x1
E|---|---|------|---|--------------|---|---|------|---|-----|
B|---|---|------|---|--------------|---|---|------|---|-----|
G|-7-|-8-|-10-8-|-7-|-8-8-8-10-8-5-|-7-|-8-|-10-8-|-7-|-12\-|
D|-7-|-8-|-10-8-|-7-|-8-8-8-10-8-5-|-7-|-8-|-10-8-|-7-|-----|
A|-5-|-6-|--8-6-|-5-|-6-6-6--8-6-3-|-5-|-6-|--8-6-|-5-|-10\-|
E|---|---|------|---|--------------|---|---|------|---|-----|

Repeat Riff 2 x3

Fill 2 x1
e|------------------------|-------|---------|
B|------------------------|-------|---------|
G|------------------------|-------|--6-5-4--|
D|---------------------3--|--4-3--|--6-5-4--|
A|---------------------3--|--4-3--|--4-3-2--|
E|--000000000000000310-1--|--2-1--|---------|

Repeat Riff 1 x4
Repeat Fig. 1 x1
Repeat Riff 2 x4
Repeat Riff 1 x2
Repeat Fig. 1 x1

Fig. 2 x4
e|--------------------------|------------------------|
B|--------------------------|------------------------|
G|--9-------9-----10-----9--|----------9-----7-------|
D|--9-------9-----10-----9--|----------9-----7----9--|
A|--7-------7------8-----7--|----------7-----5----9--|
E|----0-0-0---000-----0-----|--0-0-0-0---000---0--7--|

Fig. 2B x2
e|--------------------------|------------------------|
B|--------------------------|------------------------|
G|--9-------9-----10-----9--|----------7---------10--|
D|--9-------9-----10-----9--|----------7-----9---10--|
A|--7-------7------8-----7--|----------5-----9----8--|
E|----0-0-0---000-----0-----|--0-0-0-0---000-7-0-----|

Fig. 2C x7
e|--------------------------|------------------------|
B|--------------------------|------------------------|
G|--9-------9-----10-----9--|----------9-----7-------|
D|--9-------9-----10-----9--|----------9-----7----9--|
A|--7-------7------8-----7--|----------7-----5----9--|
E|----0-0-0---000-----0-----|--0-0-0-0---000---0--7--|

e|-----------------------|---------------------|
B|-----------------------|---------------------|
G|-----------------------|------------------7--|
D|--3-------3-----4---3--|----------3---4---7--|
A|--3-------3-----4---3--|----------3---4---5--|
E|--1-1-1-1-1-1-1-2-1-1--|--1-1-1-1-1---2------|

Repeat Riff 1 x4
Repeat Fig. 1 x1
Repeat Riff 2 x4
Repeat Riff 1 x2
Repeat Riff 2 x3

End x1
e|------------------------|-------|-------|-------|-------------|
B|------------------------|-------|-------|-------|-------------|
G|------------------------|-------|-------|-------|--6-5-4------|
D|---------------------3--|--4-3--|--4-3--|--4-3--|--6-5-4-5-2--|
A|---------------------3--|--4-3--|--4-3--|--4-3--|--4-3-2-5-2--|
E|--000000000000000310-1--|--2-1--|--2-1--|--2-1--|--------3-0--|
Tap to rate this tab
# A B C D E F G H I J K L M N O P Q R S T U V W X Y Z