Song name
# A B C D E F G H I J K L M N O P Q R S T U V W X Y Z

Halo Benders - Virginia Reel Around The Fountain tab

-------------------------------------------------------------------------------
	    Virginia Reel Around the Fountain - The Halo Benders
-------------------------------------------------------------------------------
Tabbed by: Jeff

intro (imitates bass)
    E                     A
e|---------------------------------------------------------------------------|
B|---------------------------------------------------------------------------|
G|--1-1-1-1-1-1-1-1-1-1-1-2-2-2-2-2-2-2-2-2-2-2-2----------------------------|
D|--2---------2-----------2-----------2--------------------------------------|
A|--2---------2-----------0-----------0--------------------------------------|
E|--0---------0-----------0-----------0--------------------------------------|

lead guitar noodles with delay

verse (same rhythmic strumming):

e|---------------------------------------------------------------------------|
B|---------------------------------------------------------------------------|
G|--9-9-9-9-9-9-9-9-9--6-6-6-6-6-6--4-4-4-4-4-4-4-4-4-4-4-4-4----------------|
D|---------------------------------------------------------------------------|
A|--7-7-7-7-7-7-7-7-7--4-4-4-4-4-4--2-2-2-2-2-2-2-2-2-2-2-2-2----------------|
E|---------------------------------------------------------------------------|

E            A              E
You told yourself something funny the other day
E            A              E
You said you can   make you laugh.

E            A          E
How can that be in your solid state?
How can that be in your solid state?

Don't say no, just say you don't know.

solo (w/ delay)

e|------------------------------------12-12------------------------------------|
B|--12~~\9/-14---7-7h9--9\5--5---etc--------12-12h14---------------------------|
G|-----------------------------------------------------------------------------|
D|-----------------------------------------------------------------------------|
A|-----------------------------------------------------------------------------|
E|-----------------------------------------------------------------------------|


e|---------------------------------------------------------------------------|
B|---------------------------------------------------------------------------|
G|--13-13-13-13-13-13-13--14-14-14-14-14-14-14-14---9-8--6-------------------|
D|----------------------------------------------------------9--7-------------|
A|--11-11-11-11-11-11-11--12-12-12-12-12-12-12-12---7-6--4-----------etc-----|
E|----------------------------------------------------------7--5-------------|

E            A                   E             A
How can that be          in your solid state?
                E
And you make it unreal
A           E                A
I'm reeling around the fountain
A           E                A
I'm reeling around the fountain.


e|---9-------------------------------------------|
B|---------9--7----------------------------------|
G|-----8-9------8-9------------------------------|
D|------------------9----------------------------| Repeat
A|-----------------------------------------------|
E|-----------------------------------------------|

E           A          E
I still confide in you almost every day
E           A            E
Even though you're not around.

E            A          E
How can that be in your solid state?
How can that be in your solid state?

E
Don't say no, just say you don't know.
A
Don't say no, just say you don't know.    etc

And for fun here's Calvin Johnson's lyrics:


Fill me up to the brim
And then learn to dance like him
Pull me apart limb by limb Limb by limb

wrestle that bull heart from the grass
Pack my head and make it last
Do a little dance on the kitchen table
Rub your tummy and kill your navel

big city mouse with the factory wife
Do a little dance with the carving knife
Rub your tummy and stand apart
Negotiate a full service apple cart

All the others are cutting their hair
You keep it long and let them stare
Rub your tummy at the county fair
Innie, outie I don't care

Do-si-do to the head of the class
do-si-do to the head of the class
do-si-do to the head of the class
Virginia reel come around the mountain
Virginia reel around the mountain


Your savage
Your savage
Your savage cabbage leaf
Your savage cabbage leaf
Your savage
Your savage
Your savage cabbage leaf
Your savage
You're savage
riding in a steel rain (range?)
Submarine erasers in the passing lane
Shape of your navel is preordained
Antelope roaming through the bullet train
Throw a curve ball through my mask
...(?) black wooden Baseball bat
Here come the bunnies drinking sugar water
Do a little dance with the farmer's daughter
clear the room with a difficult task
Recite haiku and Step on the gas
big city mouse with a hell of a mortgage
Wipe your tummy and crank up the orange
do a little dance with the carving knife
wipe up the floor with my Civil rights
Pull me apart make me pay
Innie, outie whatever you say
Virginia reel come around the mountain
Virginia reel around the fountain
Virginia reel as savage as you feel


| /  slide up
| \  slide down
| h  hammer-on
| p  pull-off
| ~  vibrato
| +  harmonic
| x  Mute note
===============================================================================
Tap to rate this tab
# A B C D E F G H I J K L M N O P Q R S T U V W X Y Z