Song name
# A B C D E F G H I J K L M N O P Q R S T U V W X Y Z

Halo Friendlies - Unsaid Goodbyes tab

Help us improve GuitareTab! Take a short survey!
* this is not my tab, I just thought that it would be better if this tab was on ultimateguitar tab*
UNSAID GOODBYES
Halo Friendlies
From the album "Get Real" (Tooth and Nail Records)
Guitar Tab
Transcribed by Ed Nomura (www.eddog.com)

CHORDS:                                  CHORDS FOR SOLO:

   B     B/A#  E     G      F#           B     F#     A     E
------------------------------------------------------------0---------------------------|
---------------9-----12-----11-----------------11-----------0---------------------------|
---8-----8-----9-----12-----11-----------8-----11-----6-----1---------------------------|
---9-----9-----9-----12-----11-----------9-----11-----7-----2---------------------------|
---9-----9-----7-----10-----9------------9-----9------7-----2---------------------------|
---7-----6-------------------------------7------------5-----0---------------------------|

INTRO/VERSE:

This is the general gist of the strum pattern.  Play it freely with the other
strings in the chords.

    B               B/A#            E               G
---|---------------|---------------|---------------|---------------------------|
---|---------------|---------------|------9--------|--------12-----------------|
---|------8--------|------8--------|----9-----9----|-----12------12------------|
---|----9-----9----|----9-----9----|----9---------9|-----12------------11\-----|
---|----9---------9|----9---------9|7-----------7--|10--------------10----\----|
---|7-----------7--|6-----------6--|---------------|-----------------------\---|


    B               B/A#            E               G           F#
---|---------------|---------------|---------------|---------------------------|
---|---------------|---------------|------9--------|---12----------------------|
---|------8--------|------8--------|----9-----9----|---------12---11-----------|
---|----9-----9----|----9-----9----|----9---------9|-------------------11\-----|
---|----9---------9|----9---------9|7-----------7--|10----10----9----9----\----|
---|7-----------7--|6-----------6--|---------------|---------------------------|

REPEAT INTRO/VERSE 2X

Wasn't such a bad time for us
'Cause we were young
I think about the good times
Driving under moonlight
Low tides and lullabyes
Do you remember it too

CHORUS:

E                   F#

   And I was on the telephone

B                            C#

Telling you to come home and settle the score

E           F#      B           C#

   Didn't I try and tell you of passing time

E         F#

    And unsaid good...

REPEAT INTRO/VERSE (1st line only)

...byes

REPEAT INTRO/VERSE 2X

Sitting in the back seat of life
Joy ride
We know we couldn't get bored
Following our dreams down the path of life
And we don't know
What do we do when we get there

REPEAT CHORUS

And I was on the seventh floor
Shouting at the window let's settle the score
Didn't I try and tell you of passing time
And unsaid goodbyes


REPEAT INTRO/VERSE (1st line only)


SOLO:

   B                 F#               A               E
-----------------------------------------------------------------------------|
-----------------------------------------------------------------------------|
----------------10--------------------------------8--------------------------|
--/13----------------11---------------11--------------9----------------------|
-/---------------------------------------------------------------------------|
-----------------------------------------------------------------------------|


   B                 F#               A               E
-----------------------------------------------------------------------------|
-----------------------------------------------------------------------------|
---------------------11/13---11--------------------8-------------------------|
--/13-----------13--------------------11--------------9----------------------|
-/---------------------------------------------------------------------------|
-----------------------------------------------------------------------------|


   B                 F#                A                   F#
-----------------------------------------------------------------------------|
-----------------------------------------------------------------------------|
-----------------------------------------------------------------------------|
--/13-----------13---13-/-16-----------16-/-18---18---18---18-\-16---16------|
-/---------------------------------------------------------------------------|
-----------------------------------------------------------------------------|

REPEAT CHORUS

And I was on the telephone
Telling you I'll be home to settle the score
Didn't I try and tell you of passing time
And unsaid good...


B         C#

...byes


    E         F#

goodbyes          goodbye

REPEAT INTRO/CHORUS (2nd line only)

OUTRO:

   B
-------------7----------------------------------------------------------|
-----------7------------------------------------------------------------|
---------8--------------------------------------------------------------|
-------9----------------------------------------------------------------|
-----9------------------------------------------------------------------|
---7--------------------------------------------------------------------|


*Enjoy ! *
Related for Unsaid Goodbyes tab