Song name
# A B C D E F G H I J K L M N O P Q R S T U V W X Y Z

Halo - Rock Anthem For Saving The World tab

ive seen a lot of people asking for this song, well finaly here it is
now you can learn the solo,
 i dondt know the verse so u can tab it if u want.
NOTE: it needs a 24 fret guitar for the ending or just bend it up untill it sounds like 
on the 24th fret

Rock anthem from saving the world guitarr solo from the mission silent cartographer:


|------------15h14-17~~~~~~~---12-14-|15b14-12-15-15-15-15p14p12-12----15-|
|17~~~~~~----------------------------|-------------------------12---15----|
|------------------------------------|------------------------------------|
|------------------------------------|------------------------------------|
|------------------------------------|------------------------------------|
|------------------------------------|------------------------------------|

|-------------------------------------|------------------------------------|
|12~~~~~~----------15-----------------|------------------------------------|
|---------14-12------12b14b12-9--10-9-|9-----9-----9---------9-------9-----|
|---------------14--------------------|---14----12----12-------------------|
|-------------------------------------|------------------14----14-12----12/|
|-------------------------------------|------------------------------------|

|19~~~~~~~----------------------14-15|14~~~~~-----15-17-15~~~~------15-17-|
|------------17-15-17~~~~------------|------------------------------------|
|------------------------------------|------------------------------------|
|------------------------------------|------------------------------------|
|------------------------------------|------------------------------------|
|------------------------------------|------------------------------------|

|21b23~~~~23~~~~~~~~~~~~~23~~~~23~~~~|b22~~~~~~22~~~~~~~17\\\-------12-14-|
|------------------------------------|------------------17\\\-------------|
|------------------------------------|------------------------------------|
|------------------------------------|------------------------------------|
|------------------------------------|------------------------------------|
|------------------------------------|------------------------------------|

|12~~~~~~~---------------------------|------------------------------------|
|------------------15-12-15-12-15-15-|14~~~~~~~14\---------------12-15-12-|
|------------------------------------|------------------------12----------|
|------------------------------------|---------------------14-------------|
|------------------------------------|-----------------/14----------------|
|------------------------------------|------------------------------------|

|------------------------------------|------------------------------------|
|13~~~~~~~13----12-13~~~~~-----------|------------------------------------|
|---------------------------12-14-14b|16~~~~---11-12-11-12-11- -----------|
|------------------------------------|------------------------14-12-------|
|------------------------------------|------------------------------14-12-|
|------------------------------------|------------------------------------|

|12~~~~~~\---------14~~~~~~\---/12-14|15~~~~~~~\----/17-17~~~~~~~---17-19-|
|-----------/12-15-------------------|------------------------------------|
|------------------------------------|------------------------------------|
|------------------------------------|------------------------------------|
|------------------------------------|------------------------------------|
|------------------------------------|------------------------------------|

|19~~~~~\-17-19-19/22~~~-19-22-19-22-|24~~~~~~~~~~~~~~~~~~~~~~~~~~~~~~~~~~--|
|------------------------------------|--------------------------------------|
|------------------------------------|--------------------------------------|
|------------------------------------|--------------------------------------|
|------------------------------------|--------------------------------------|
|------------------------------------|--------------------------------------|
Tap to rate this tab
# A B C D E F G H I J K L M N O P Q R S T U V W X Y Z