Song name
# A B C D E F G H I J K L M N O P Q R S T U V W X Y Z

Halo - Rock Anthem For Saving The World tab

Rock anthem for saving the world from the Halo 1 mission Silent cartographer

|------------------------------------|
|------------------------------------|
|------------------------------------|
|--------2~~~~~~~~~~~~~~-------------|      x1
|--------2~~~~~~~~~~~~~~-------------|
|-12/(2)-0~~~~~~~~~~~~~~-------/12\--|

|------------------------------------|
|------------------------------------|
|------------------------------------|
|------------------------------------|      x4
|----44-----44-----55-----4/9\4------|
|-22222--22222--33333--2222/7\2------|



|------------------------------------|
|------------------------------------| <--- this is when the rithm changes
|------------------------------------|      a bit
|------------------------------------|      
|-----44-----44-----44-----4/5\2-----|           x2
|--22222--22222--22222--2222/5\2-----|

|------------------------------------|
|------------------------------------|  
|------------------------------------|
|5~~~~---7~~~~---4~~~~---4~~~~~/-----|      x1
|5~~~~xxx7~~~~xxx4~~~~xxx4~~~~~/-----|
|3~~~~xxx5~~~~xxx2~~~~xxx1~~~~~/-----|


then u start the solo
and here is a link to get the solo i posted:

http://www.ultimate-guitar.com/tabs/h/halo/rock_anthem_for_saving_the_world_solo_tab.htm

have fun
by rammsteinspiel from www.ultimate-guitar.com

Tap to rate this tab
# A B C D E F G H I J K L M N O P Q R S T U V W X Y Z