Song name
# A B C D E F G H I J K L M N O P Q R S T U V W X Y Z

Halo - Siege Of Madrigal tab

 |1 + 2 + 3 +  1 + 2 + 3 +
e|0---0---0---|5-----------|------------|------------|0---0---0---|5-----------|
B|------------|--------5---|3-----------|------0-1-3-|------------|--------5---|
G|2-----------|------------|0-----------|----2-------|2-----2-----|------------|
D|------------|3-----------|------------|------------|------------|3-----------|
A|------------|------------|------------|------------|------------|------------|
E|------------|------------|------------|------------|------------|------------|

|--------3---|------------|------------|------------|------------|------------|
|3-----------|--------0-1-|3-----3-----|1-----------|------------|----------1-|
|0-----------|----0-2-----|0---0---0---|----0-------|2-----------|------0-2---|
|------------|------------|------------|2-------2---|----3-------|----3-------|
|------------|------------|2-----------|3-----------|3-----------|------------|
|------------|------------|------------|------------|1-----------|------------|

|------------|0-----------|------------|
|3-----3-----|------1-----|------------|
|0---0---0---|--------0---|2-----------|
|------------|2---2-------|3-----------|
|2-----------|3-----------|3-----------|
|------------|------------|1-----------|
Tap to rate this tab
# A B C D E F G H I J K L M N O P Q R S T U V W X Y Z