Song name
# A B C D E F G H I J K L M N O P Q R S T U V W X Y Z

Halo - Siege Of Madrigal tab

Just figured it out by ear and memory and wrote it down.
Now I noticed that there is already another tab of this.

I play it in a different way so here we go:

E||-----------------|-----------------|----------------|--------------------|
B||-----------------|--10-------------|----------------|--------------------|
G||--9----9----9----|------------9----|--7-------------|-----------------7--|
D||--7--------------|-----------------|--5-------------|-------7--9--10-----|
A||-----------------|---8-------------|----------------|--------------------|
E||-----------------|-----------------|----------------|--------------------|


     
------------------|-----------------|----------------|-------------------|
------------------|--10-------------|-----------8----|-------------------|
--9-------9-------|------------9----|--7-------------|-------------4--5--|
--7----7--7--7----|-----------------|--5-------------|-------5--7--------|
------------------|---8-------------|----------------|-------------------|
------------------|-----------------|----------------|-------------------|

  
------------------|-----------------|----------------|-------------------|
------------------|-----------------|----------------|-------------------|
--7-------7-------|--5--------------|----------------|----------------5--|
--5----5--5--5----|-------5---------|--7-------------|----------5--7-----|
------------------|--7---------7----|--8----8--------|-------8-----------|
------------------|-----------------|----------------|-------------------|


         
------------------|------------------|----------------||
------------------|--5---------------|----------------||
--7-------7-------|--5-------5-------|----------------||
--5----5--5--5----|-------5-----5----|--7-------------||
------------------|--7---------------|--8-------------||
------------------|------------------|----------------||
Tap to rate this tab
 
# A B C D E F G H I J K L M N O P Q R S T U V W X Y Z