Song name
# A B C D E F G H I J K L M N O P Q R S T U V W X Y Z

Haloo Helsinki - Moshpit tab

/*---------------------------------------------------------------------------------------------
// Haloo Helsinki - Moshpit
// --------------------------------------------------------------------------------------------
// chords by Joonas Greis - kamilla @ quakenet
// joonas.greis@kamillaproductions.com
// notes: 
*/---------------------------------------------------------------------------------------------

//intro


    e|--------------------------------------------------------------------------------|
    b|--------------------------------------------------------------------------------|
    g|--------------------------------------------------------------------------------|
    d|---------7-------5-----------7-------5~----------7-------5----------------------|
    a|-8---5-------8-------8---5-------8-------8---5-------8-------8---5---7---3---5--|
    E|--------------------------------------------------------------------------------|



//verse, following intonation of intro, Dm as a base chord


    Dm/5   | F/5 Bb/5 



//chorus

   Bb/5    |    C/5    |    Dm/5    |     F/5

   Bb/5    |    C/5    |    Am/5    |     Dm/5



//solo, chorus chord progression

    e|-----------------------------------------------------------------|
    b|---------------------------6-5-----------------------------------|
    g|-7---7-5-7---7-5-7---7-5-7-----5-7---7-5-7---7-5-7---7-5-------5-|
    d|---------------------------------------------------------7-7-7---|
    a|-----------------------------------------------------------------|
    E|-----------------------------------------------------------------|
Tap to rate this tab
 
# A B C D E F G H I J K L M N O P Q R S T U V W X Y Z