Song name
# A B C D E F G H I J K L M N O P Q R S T U V W X Y Z

Haloo Helsinki - Kokeile Minua chords

Highlighted       Show chord diagrams
/*---------------------------------------------------------------------------------------------
// Haloo Helsinki - Kokeile Minua
// --------------------------------------------------------------------------------------------
// chords by Joonas Greis - kamilla @ quakenet
// joonas.greis@kamillaproductions.com
// notes:
*/---------------------------------------------------------------------------------------------

//tuning one semitone lower

//intro

    d#|-----------------------------------------------------------|
    a#|-----------------------------------------------------------|
    f#|-----------------------------------------------------------|
    c#|-----------------------------------------------------------|
    g#|-------3--5--7-----3---------------3--5--7-----3-----------|
    D#|-5-5-5---------5-5---5--1--0-5-5-5---------5-5---5-1-1-1-1-|


//verse, following intonation of intro

    G#5           E5            G#5           E5

    Mitä sä seuraat ja mitä sä kyyläät. Joka bileissä on joku hiton hiihtäjä

    G#5           E5            G#5           E5

    Mitä sä pelkäät ja mitä sä nysväät. Joka bileissä on joku hyvä vesipatja


        B5       G#5          B5       G#5
    d#|---------------------------------------------|
    a#|---------------------------------------------|
    f#|---------------------------------------------|
    c#|-5---4--2-4-2----------5---4--2-4-2----------|
    g#|---------------5--3------------------5--3----|
    D#|---------------------5---------------------5-|

    Tää elämä, älä jänistä

    Tää elämä

    G#5           E5            G#5           E5

    Netissä heität niin kovana läppää, mut livenä et uskalla toimia

    G#5           E5            G#5           E5

    Jokainen pelkää jäävänsä yksin, mut sato pitää poimia



    E5   | C#5 D#5 |   G#5   |   B5

    Kokeile minua, kokeile. Olen ihoa luuta ja lihaa

    E5   | C#5 D#5 |   G#5   | B5  C5

    Kokeile beibi, anna palaa. Ei riitä että halaat

    E5   | C#5 D#5 | G#5 F#5 | [ch]F#5/G#[/ch] F5   // laskeva osuus vain kahdella alimmalla 
kielellä (muutenkin olen hieman epävarma oikeellisuudesta)

    Kokeile minua, kokeile. Rakastan enkä vihaa

    E5   |   D#5   |   G#5   |   G#5  // G# laskee pohjasävelenä jonku 
flangerin/wahwahin tai muun kaa

    Kokeile beibi, kokeile minua


    G#5           E5            G#5           E5

    Meet liian lujaa, pysää, pysää. Meet liian lujaa, pysää, pysää

        B5       G#5          B5       G#5
    d#|---------------------------------------------|
    a#|---------------------------------------------|
    f#|---------------------------------------------|
    c#|-5---4--2-4-2----------5---4--2-4-2----------|
    g#|---------------5--3------------------5--3----|
    D#|---------------------5---------------------5-|


    Hyvä sä seuraat. Ja hyvä sä naurat. Joka bileissä on joku joka kolisee
    Karataan täältä ja karataan kauas. Sillä sydän sanoo mee

    Kokeile minua, kokeile. Olen ihoa luuta ja lihaa
    Kokeile beibi, anna palaa. Ei riitä että halaat
    Kokeile minua, kokeile. Rakastan enkä vihaa
    Kokeile beibi, kokeile minua

    Meet liian lujaa, pysää, pysää
    Meet liian lujaa, pysää, pysää
    Meet liian lujaa, pysää, pysää, pysää
    Meet liian lujaa, pysää, pysää, pysää

    G#5

    Karataan täältä ja karataan kauas
    Sillä sydän sanoo mee
    Sillä sydän sanoo mee
    Sillä sydän sanoo mee

    Kokeile minua, kokeile...
Tap to rate this tab
# A B C D E F G H I J K L M N O P Q R S T U V W X Y Z