Song name
# A B C D E F G H I J K L M N O P Q R S T U V W X Y Z

Haloo Helsinki - Haloo Helsinki chords

Highlighted       Show chord diagrams
/*---------------------------------------------------------------------------------------------
// Haloo Helsinki - Haloo Helsinki
// --------------------------------------------------------------------------------------------
// chords by Joonas Greis - kamilla @ quakenet
// joonas.greis@kamillaproductions.com
// notes: 
*/---------------------------------------------------------------------------------------------

//riff A

   e|---------------------------------|
   b|---------------------------------|
   g|---------------------------------|
   D|-2-2-2-2-2-2-2-2-2-2-2-2-2-2-3-2-|
   A|-2-2-2-2-2-2-2-2-2-2-2-2-2-2-3-2-|
   E|-0-0-3-0-0-3-0-0-3-0-0-3-0-0-1-0-|


   Hei!


//verse, following intonation of intro


   E5             |   E5     F5

   Kiskoja pitkin keskustaan

   E5             |   E5     F5

   (ei ole muuta paikkaa)

   E5             |   E5     F5

   ja sitten niinkuin manalaan

   E5             |   E5     F5

   (näin mä tapan aikaa)

   C5             |   A5     

   Mä menin alas tunneliin

   C5      D5     |   A5     A#5

   kun siellä valot katkaistiin

   E5             |   E5     F5

   silloin me kaksi törmättiin

   E5             |   E5     F5



   D#m/5  |  B/5  |  F#/5  | C#/5 D/5

   Nyt itämeren tyttärellä on hyvä olo, sydän hellä

   D#m/5  |  B/5  |  F#/5  | C#/5 D/5

   Nyt mieli lentää korkeallla, tän betonisen taivaan alla

   D#m/5  |  B/5  |  F#/5  | C#/5

   Haloo Helsinki! Haloo Helsinki! Maailman karuin kaupunki, on tänään

   G#m/5  | G#m/5 | a|-5---4---5---4---5-4-5---| // --> suoraan riffiin

   kauniimpi, kauniimpi kuin milloinkaan         ..   ikinä milloinkaan



   E5             |   E5     F5

   Aurinko kirkon portailla

   E5             |   E5     F5

   (sä pidit mulle paikkaa)

   E5             |   E5     F5

   viipyilee meidän kasvoilla

   E5             |   E5     F5

   (meil on kyllä aikaa)

   C5             |   A5     

   Ei ole kiire sanoo sanaakaan

   C5      D5     |   A5     G5

   Ei ole tarve vetoo Jumalaan

   E5             |   E5     F5

   kun on jo paratiisissa

   E5             |   E5     F5



   D#m/5  |  B/5  |  F#/5  | C#/5 D/5

   Nyt itämeren tyttärellä on hyvä olo, sydän hellä

   D#m/5  |  B/5  |  F#/5  | C#/5 D/5

   Nyt mieli lentää korkeallla, tän betonisen taivaan alla

   D#m/5  |  B/5  |  F#/5  | C#/5

   Haloo Helsinki! Haloo Helsinki! Maailman karuin kaupunki, on tänään

   G#m/5  | G#m/5 | a|-5---4---5---4---5-4-5---| 

   kauniimpi, kauniimpi kuin milloinkaan



   a|-----------------------------3--|
   E|-0---3---2---1---0---3---2------|

   Ikinä milloinkaan


// on 4th time let e ring


   Nyt itämeren tyttärellä...
Tap to rate this tab
# A B C D E F G H I J K L M N O P Q R S T U V W X Y Z